ISO-10303-21;
HEADER;
FILE_DESCRIPTION (( 'STEP AP203' ),
    '1' );
FILE_NAME ('REV-21-2086.STEP',
    '2022-04-27T19:41:32',
    ( '' ),
    ( '' ),
    'SwSTEP 2.0',
    'SolidWorks 2022',
    '' );
FILE_SCHEMA (( 'CONFIG_CONTROL_DESIGN' ));
ENDSEC;

DATA;
#1 = ORIENTED_EDGE ( 'NONE', *, *, #236, .F. ) ;
#2 = CYLINDRICAL_SURFACE ( 'NONE', #142, 0.1875000000000000278 ) ;
#3 = CARTESIAN_POINT ( 'NONE',  ( -0.1250000000000000000, 1.205361022782828035E-17, -0.09842519685039370636 ) ) ;
#4 = CIRCLE ( 'NONE', #83, 0.1875000000000000278 ) ;
#5 = DIRECTION ( 'NONE',  ( 0.000000000000000000, 0.000000000000000000, 1.000000000000000000 ) ) ;
#6 = ADVANCED_FACE ( 'NONE', ( #146 ), #220, .F. ) ;
#7 = PERSON_AND_ORGANIZATION ( #171, #233 ) ;
#8 = PRODUCT_RELATED_PRODUCT_CATEGORY ( 'detail', '', ( #37 ) ) ;
#9 = CARTESIAN_POINT ( 'NONE',  ( 0.1250000000000000000, 1.205361022782828035E-17, -0.09842519685039370636 ) ) ;
#10 = LOCAL_TIME ( 14, 41, 32.00000000000000000, #74 ) ;
#11 = CARTESIAN_POINT ( 'NONE',  ( 0.1250000000000000000, 0.000000000000000000, 0.000000000000000000 ) ) ;
#12 = DATE_AND_TIME ( #215, #104 ) ;
#13 = DATE_TIME_ROLE ( 'classification_date' ) ;
#14 = AXIS2_PLACEMENT_3D ( 'NONE', #239, #62, #47 ) ;
#15 = ORIENTED_EDGE ( 'NONE', *, *, #218, .T. ) ;
#16 = CC_DESIGN_APPROVAL ( #195, ( #95 ) ) ;
#17 = COORDINATED_UNIVERSAL_TIME_OFFSET ( 6, 0, .BEHIND. ) ;
#18 = COORDINATED_UNIVERSAL_TIME_OFFSET ( 6, 0, .BEHIND. ) ;
#19 = DATE_AND_TIME ( #58, #10 ) ;
#20 = VERTEX_POINT ( 'NONE', #100 ) ;
#21 = CARTESIAN_POINT ( 'NONE',  ( -0.1250000000000000000, 0.000000000000000000, 0.000000000000000000 ) ) ;
#22 = ORIENTED_EDGE ( 'NONE', *, *, #45, .T. ) ;
#23 = AXIS2_PLACEMENT_3D ( 'NONE', #132, #84, #131 ) ;
#24 = CARTESIAN_POINT ( 'NONE',  ( -0.1250000000000000000, 0.000000000000000000, 0.000000000000000000 ) ) ;
#25 = CC_DESIGN_PERSON_AND_ORGANIZATION_ASSIGNMENT ( #7, #244, ( #37 ) ) ;
#26 = DIRECTION ( 'NONE',  ( 0.000000000000000000, 0.000000000000000000, 1.000000000000000000 ) ) ;
#27 = ADVANCED_BREP_SHAPE_REPRESENTATION ( 'REV-21-2086', ( #137, #87 ), #41 ) ;
#28 = CIRCLE ( 'NONE', #223, 0.1875000000000000278 ) ;
#29 = APPROVAL_PERSON_ORGANIZATION ( #140, #107, #136 ) ;
#30 = AXIS2_PLACEMENT_3D ( 'NONE', #154, #228, #229 ) ;
#31 = CARTESIAN_POINT ( 'NONE',  ( -0.1250000000000000000, 2.296212748401287726E-17, -0.1875000000000000278 ) ) ;
#32 = APPROVAL_STATUS ( 'not_yet_approved' ) ;
#33 = COORDINATED_UNIVERSAL_TIME_OFFSET ( 6, 0, .BEHIND. ) ;
#34 = ORIENTED_EDGE ( 'NONE', *, *, #139, .T. ) ;
#35 = SECURITY_CLASSIFICATION_LEVEL ( 'unclassified' ) ;
#36 = PRODUCT_DEFINITION ( 'UNKNOWN', '', #95, #143 ) ;
#37 = PRODUCT ( 'REV-21-2086', 'REV-21-2086', '', ( #206 ) ) ;
#38 = ORIENTED_EDGE ( 'NONE', *, *, #200, .T. ) ;
#39 = COORDINATED_UNIVERSAL_TIME_OFFSET ( 6, 0, .BEHIND. ) ;
#40 = ORIENTED_EDGE ( 'NONE', *, *, #152, .F. ) ;
#41 =( GEOMETRIC_REPRESENTATION_CONTEXT ( 3 ) GLOBAL_UNCERTAINTY_ASSIGNED_CONTEXT ( ( #182 ) ) GLOBAL_UNIT_ASSIGNED_CONTEXT ( ( #108, #191, #209 ) ) REPRESENTATION_CONTEXT ( 'NONE', 'WORKASPACE' ) );
#42 = DIRECTION ( 'NONE',  ( 0.000000000000000000, 0.000000000000000000, 1.000000000000000000 ) ) ;
#43 = ORIENTED_EDGE ( 'NONE', *, *, #139, .F. ) ;
#44 = FACE_OUTER_BOUND ( 'NONE', #214, .T. ) ;
#45 = EDGE_CURVE ( 'NONE', #91, #197, #129, .T. ) ;
#46 = CC_DESIGN_APPROVAL ( #125, ( #36 ) ) ;
#47 = DIRECTION ( 'NONE',  ( 0.000000000000000000, 0.000000000000000000, -1.000000000000000000 ) ) ;
#48 = ORIENTED_EDGE ( 'NONE', *, *, #45, .F. ) ;
#49 = APPLICATION_PROTOCOL_DEFINITION ( 'international standard', 'config_control_design', 1994, #111 ) ;
#50 = CARTESIAN_POINT ( 'NONE',  ( -0.1250000000000000000, 0.000000000000000000, 0.09842519685039370636 ) ) ;
#51 = CARTESIAN_POINT ( 'NONE',  ( -0.1250000000000000000, 2.296212748401287726E-17, -0.1875000000000000278 ) ) ;
#52 = DIRECTION ( 'NONE',  ( -1.000000000000000000, -0.000000000000000000, -0.000000000000000000 ) ) ;
#53 = AXIS2_PLACEMENT_3D ( 'NONE', #21, #78, #203 ) ;
#54 = LINE ( 'NONE', #50, #242 ) ;
#55 = PERSON_AND_ORGANIZATION ( #171, #233 ) ;
#56 = ORIENTED_EDGE ( 'NONE', *, *, #159, .F. ) ;
#57 = ADVANCED_FACE ( 'NONE', ( #120 ), #2, .T. ) ;
#58 = CALENDAR_DATE ( 2022, 27, 4 ) ;
#59 = AXIS2_PLACEMENT_3D ( 'NONE', #86, #173, #227 ) ;
#60 = APPROVAL_DATE_TIME ( #216, #107 ) ;
#61 = EDGE_LOOP ( 'NONE', ( #202, #43, #15, #116 ) ) ;
#62 = DIRECTION ( 'NONE',  ( 1.000000000000000000, 0.000000000000000000, 0.000000000000000000 ) ) ;
#63 = CC_DESIGN_PERSON_AND_ORGANIZATION_ASSIGNMENT ( #231, #213, ( #36 ) ) ;
#64 = ORIENTED_EDGE ( 'NONE', *, *, #170, .F. ) ;
#65 = CYLINDRICAL_SURFACE ( 'NONE', #53, 0.09842519685039370636 ) ;
#66 = AXIS2_PLACEMENT_3D ( 'NONE', #98, #168, #26 ) ;
#67 = DIRECTION ( 'NONE',  ( 0.000000000000000000, 0.000000000000000000, 1.000000000000000000 ) ) ;
#68 = APPLICATION_PROTOCOL_DEFINITION ( 'international standard', 'config_control_design', 1994, #127 ) ;
#69 = ADVANCED_FACE ( 'NONE', ( #44, #150 ), #81, .F. ) ;
#70 = DIRECTION ( 'NONE',  ( 0.000000000000000000, 0.000000000000000000, 1.000000000000000000 ) ) ;
#71 = AXIS2_PLACEMENT_3D ( 'NONE', #169, #243, #67 ) ;
#72 = CC_DESIGN_SECURITY_CLASSIFICATION ( #158, ( #95 ) ) ;
#73 = ORIENTED_EDGE ( 'NONE', *, *, #236, .T. ) ;
#74 = COORDINATED_UNIVERSAL_TIME_OFFSET ( 6, 0, .BEHIND. ) ;
#75 = AXIS2_PLACEMENT_3D ( 'NONE', #11, #52, #190 ) ;
#76 = APPROVAL_DATE_TIME ( #19, #125 ) ;
#77 = EDGE_LOOP ( 'NONE', ( #34, #144 ) ) ;
#78 = DIRECTION ( 'NONE',  ( -1.000000000000000000, -0.000000000000000000, -0.000000000000000000 ) ) ;
#79 = CC_DESIGN_APPROVAL ( #107, ( #158 ) ) ;
#80 = DIRECTION ( 'NONE',  ( -1.000000000000000000, -0.000000000000000000, -0.000000000000000000 ) ) ;
#81 = PLANE ( 'NONE',  #133 ) ;
#82 = DIRECTION ( 'NONE',  ( -1.000000000000000000, -0.000000000000000000, -0.000000000000000000 ) ) ;
#83 = AXIS2_PLACEMENT_3D ( 'NONE', #106, #207, #70 ) ;
#84 = DIRECTION ( 'NONE',  ( -1.000000000000000000, -0.000000000000000000, -0.000000000000000000 ) ) ;
#85 = DIRECTION ( 'NONE',  ( 1.000000000000000000, 0.000000000000000000, 0.000000000000000000 ) ) ;
#86 = CARTESIAN_POINT ( 'NONE',  ( -0.1249999999999999861, 0.000000000000000000, 0.000000000000000000 ) ) ;
#87 = AXIS2_PLACEMENT_3D ( 'NONE', #102, #5, #85 ) ;
#88 = ADVANCED_FACE ( 'NONE', ( #126 ), #65, .F. ) ;
#89 = CARTESIAN_POINT ( 'NONE',  ( -0.1250000000000000000, 0.000000000000000000, 0.1875000000000000278 ) ) ;
#90 = SHAPE_DEFINITION_REPRESENTATION ( #211, #27 ) ;
#91 = VERTEX_POINT ( 'NONE', #204 ) ;
#92 = PERSON_AND_ORGANIZATION_ROLE ( 'design_supplier' ) ;
#93 = APPROVAL_DATE_TIME ( #94, #195 ) ;
#94 = DATE_AND_TIME ( #138, #219 ) ;
#95 = PRODUCT_DEFINITION_FORMATION_WITH_SPECIFIED_SOURCE ( 'ANY', '', #37, .NOT_KNOWN. ) ;
#96 = CARTESIAN_POINT ( 'NONE',  ( -0.1249999999999999861, 0.000000000000000000, 0.09842519685039370636 ) ) ;
#97 = ADVANCED_FACE ( 'NONE', ( #205 ), #147, .T. ) ;
#98 = CARTESIAN_POINT ( 'NONE',  ( -0.1250000000000000000, 0.000000000000000000, 0.000000000000000000 ) ) ;
#99 = VERTEX_POINT ( 'NONE', #96 ) ;
#100 = CARTESIAN_POINT ( 'NONE',  ( 0.1250000000000000000, 0.000000000000000000, 0.1875000000000000278 ) ) ;
#101 = FACE_BOUND ( 'NONE', #217, .T. ) ;
#102 = CARTESIAN_POINT ( 'NONE',  ( 0.000000000000000000, 0.000000000000000000, 0.000000000000000000 ) ) ;
#103 = AXIS2_PLACEMENT_3D ( 'NONE', #252, #80, #201 ) ;
#104 = LOCAL_TIME ( 14, 41, 32.00000000000000000, #18 ) ;
#105 = DIRECTION ( 'NONE',  ( 0.000000000000000000, 0.000000000000000000, 1.000000000000000000 ) ) ;
#106 = CARTESIAN_POINT ( 'NONE',  ( 0.1250000000000000000, 0.000000000000000000, 0.000000000000000000 ) ) ;
#107 = APPROVAL ( #235, 'UNSPECIFIED' ) ;
#108 =( CONVERSION_BASED_UNIT ( 'INCH', #246 ) LENGTH_UNIT ( ) NAMED_UNIT ( #141 ) );
#109 = CIRCLE ( 'NONE', #30, 0.09842519685039370636 ) ;
#110 = APPROVAL_ROLE ( '' ) ;
#111 = APPLICATION_CONTEXT ( 'configuration controlled 3d designs of mechanical parts and assemblies' ) ;
#112 = PERSON_AND_ORGANIZATION ( #171, #233 ) ;
#113 = ORIENTED_EDGE ( 'NONE', *, *, #212, .F. ) ;
#114 = ORIENTED_EDGE ( 'NONE', *, *, #218, .F. ) ;
#115 = ADVANCED_FACE ( 'NONE', ( #101, #224 ), #165, .F. ) ;
#116 = ORIENTED_EDGE ( 'NONE', *, *, #212, .T. ) ;
#117 = CLOSED_SHELL ( 'NONE', ( #97, #88, #115, #6, #69, #57 ) ) ;
#118 = EDGE_CURVE ( 'NONE', #196, #186, #187, .T. ) ;
#119 = CC_DESIGN_PERSON_AND_ORGANIZATION_ASSIGNMENT ( #194, #249, ( #158 ) ) ;
#120 = FACE_OUTER_BOUND ( 'NONE', #163, .T. ) ;
#121 = ORIENTED_EDGE ( 'NONE', *, *, #238, .F. ) ;
#122 = DIRECTION ( 'NONE',  ( -1.000000000000000000, 0.000000000000000000, -0.000000000000000000 ) ) ;
#123 = APPROVAL_PERSON_ORGANIZATION ( #153, #125, #110 ) ;
#124 = DIRECTION ( 'NONE',  ( 0.000000000000000000, 0.000000000000000000, 1.000000000000000000 ) ) ;
#125 = APPROVAL ( #32, 'UNSPECIFIED' ) ;
#126 = FACE_OUTER_BOUND ( 'NONE', #185, .T. ) ;
#127 = APPLICATION_CONTEXT ( 'configuration controlled 3d designs of mechanical parts and assemblies' ) ;
#128 = LINE ( 'NONE', #89, #245 ) ;
#129 = CIRCLE ( 'NONE', #103, 0.1875000000000000278 ) ;
#130 = APPROVAL_PERSON_ORGANIZATION ( #55, #195, #234 ) ;
#131 = DIRECTION ( 'NONE',  ( 0.000000000000000000, 0.000000000000000000, 1.000000000000000000 ) ) ;
#132 = CARTESIAN_POINT ( 'NONE',  ( -0.1250000000000000000, 0.000000000000000000, 0.000000000000000000 ) ) ;
#133 = AXIS2_PLACEMENT_3D ( 'NONE', #166, #122, #225 ) ;
#134 = DIRECTION ( 'NONE',  ( -1.000000000000000000, -0.000000000000000000, -0.000000000000000000 ) ) ;
#135 = ORIENTED_EDGE ( 'NONE', *, *, #238, .T. ) ;
#136 = APPROVAL_ROLE ( '' ) ;
#137 = MANIFOLD_SOLID_BREP ( 'Revolve1', #117 ) ;
#138 = CALENDAR_DATE ( 2022, 27, 4 ) ;
#139 = EDGE_CURVE ( 'NONE', #181, #196, #199, .T. ) ;
#140 = PERSON_AND_ORGANIZATION ( #171, #233 ) ;
#141 = DIMENSIONAL_EXPONENTS ( 1.000000000000000000, 0.000000000000000000, 0.000000000000000000, 0.000000000000000000, 0.000000000000000000, 0.000000000000000000, 0.000000000000000000 ) ;
#142 = AXIS2_PLACEMENT_3D ( 'NONE', #24, #222, #124 ) ;
#143 = DESIGN_CONTEXT ( 'detailed design', #127, 'design' ) ;
#144 = ORIENTED_EDGE ( 'NONE', *, *, #170, .T. ) ;
#145 = ORIENTED_EDGE ( 'NONE', *, *, #118, .T. ) ;
#146 = FACE_OUTER_BOUND ( 'NONE', #61, .T. ) ;
#147 = CYLINDRICAL_SURFACE ( 'NONE', #66, 0.1875000000000000278 ) ;
#148 = CIRCLE ( 'NONE', #75, 0.09842519685039370636 ) ;
#149 = CC_DESIGN_DATE_AND_TIME_ASSIGNMENT ( #12, #13, ( #158 ) ) ;
#150 = FACE_BOUND ( 'NONE', #77, .T. ) ;
#151 = DIRECTION ( 'NONE',  ( -1.000000000000000000, -0.000000000000000000, -0.000000000000000000 ) ) ;
#152 = EDGE_CURVE ( 'NONE', #162, #20, #4, .T. ) ;
#153 = PERSON_AND_ORGANIZATION ( #171, #233 ) ;
#154 = CARTESIAN_POINT ( 'NONE',  ( -0.1249999999999999861, 0.000000000000000000, 0.000000000000000000 ) ) ;
#155 = DIRECTION ( 'NONE',  ( -1.000000000000000000, -0.000000000000000000, -0.000000000000000000 ) ) ;
#156 = CARTESIAN_POINT ( 'NONE',  ( 0.1250000000000000000, 0.000000000000000000, 0.09842519685039370636 ) ) ;
#157 = AXIS2_PLACEMENT_3D ( 'NONE', #221, #183, #42 ) ;
#158 = SECURITY_CLASSIFICATION ( '', '', #35 ) ;
#159 = EDGE_CURVE ( 'NONE', #20, #91, #128, .T. ) ;
#160 = CALENDAR_DATE ( 2022, 27, 4 ) ;
#161 = CALENDAR_DATE ( 2022, 27, 4 ) ;
#162 = VERTEX_POINT ( 'NONE', #188 ) ;
#163 = EDGE_LOOP ( 'NONE', ( #1, #176, #240, #121 ) ) ;
#164 = LOCAL_TIME ( 14, 41, 32.00000000000000000, #39 ) ;
#165 = PLANE ( 'NONE',  #14 ) ;
#166 = CARTESIAN_POINT ( 'NONE',  ( 0.1250000000000000000, 0.1875000000000000278, 0.000000000000000000 ) ) ;
#167 = CC_DESIGN_PERSON_AND_ORGANIZATION_ASSIGNMENT ( #112, #92, ( #95 ) ) ;
#168 = DIRECTION ( 'NONE',  ( -1.000000000000000000, -0.000000000000000000, -0.000000000000000000 ) ) ;
#169 = CARTESIAN_POINT ( 'NONE',  ( 0.1250000000000000000, 0.000000000000000000, 0.000000000000000000 ) ) ;
#170 = EDGE_CURVE ( 'NONE', #196, #181, #148, .T. ) ;
#171 = PERSON ( 'UNSPECIFIED', 'UNSPECIFIED', 'UNSPECIFIED', ('UNSPECIFIED'), ('UNSPECIFIED'), ('UNSPECIFIED') ) ;
#172 = LINE ( 'NONE', #51, #179 ) ;
#173 = DIRECTION ( 'NONE',  ( -1.000000000000000000, -0.000000000000000000, -0.000000000000000000 ) ) ;
#174 = CIRCLE ( 'NONE', #59, 0.09842519685039370636 ) ;
#175 = CARTESIAN_POINT ( 'NONE',  ( 0.1250000000000000000, 0.000000000000000000, 0.000000000000000000 ) ) ;
#176 = ORIENTED_EDGE ( 'NONE', *, *, #152, .T. ) ;
#177 = VECTOR ( 'NONE', #82, 39.37007874015748143 ) ;
#178 = APPROVAL_STATUS ( 'not_yet_approved' ) ;
#179 = VECTOR ( 'NONE', #155, 39.37007874015748143 ) ;
#180 = PERSON_AND_ORGANIZATION_ROLE ( 'creator' ) ;
#181 = VERTEX_POINT ( 'NONE', #156 ) ;
#182 = UNCERTAINTY_MEASURE_WITH_UNIT (LENGTH_MEASURE( 1.000000000000000082E-05 ), #108, 'distance_accuracy_value', 'NONE');
#183 = DIRECTION ( 'NONE',  ( -1.000000000000000000, -0.000000000000000000, -0.000000000000000000 ) ) ;
#184 = EDGE_LOOP ( 'NONE', ( #38, #73, #48, #56 ) ) ;
#185 = EDGE_LOOP ( 'NONE', ( #64, #145, #251, #114 ) ) ;
#186 = VERTEX_POINT ( 'NONE', #247 ) ;
#187 = LINE ( 'NONE', #3, #177 ) ;
#188 = CARTESIAN_POINT ( 'NONE',  ( 0.1250000000000000000, 2.296212748401287726E-17, -0.1875000000000000278 ) ) ;
#189 = CIRCLE ( 'NONE', #23, 0.1875000000000000278 ) ;
#190 = DIRECTION ( 'NONE',  ( 0.000000000000000000, 0.000000000000000000, 1.000000000000000000 ) ) ;
#191 =( NAMED_UNIT ( * ) PLANE_ANGLE_UNIT ( ) SI_UNIT ( $, .RADIAN. ) );
#192 = CC_DESIGN_DATE_AND_TIME_ASSIGNMENT ( #198, #232, ( #36 ) ) ;
#193 = PERSON_AND_ORGANIZATION ( #171, #233 ) ;
#194 = PERSON_AND_ORGANIZATION ( #171, #233 ) ;
#195 = APPROVAL ( #178, 'UNSPECIFIED' ) ;
#196 = VERTEX_POINT ( 'NONE', #9 ) ;
#197 = VERTEX_POINT ( 'NONE', #31 ) ;
#198 = DATE_AND_TIME ( #160, #210 ) ;
#199 = CIRCLE ( 'NONE', #71, 0.09842519685039370636 ) ;
#200 = EDGE_CURVE ( 'NONE', #20, #162, #28, .T. ) ;
#201 = DIRECTION ( 'NONE',  ( 0.000000000000000000, 0.000000000000000000, 1.000000000000000000 ) ) ;
#202 = ORIENTED_EDGE ( 'NONE', *, *, #118, .F. ) ;
#203 = DIRECTION ( 'NONE',  ( 0.000000000000000000, 0.000000000000000000, 1.000000000000000000 ) ) ;
#204 = CARTESIAN_POINT ( 'NONE',  ( -0.1250000000000000000, 0.000000000000000000, 0.1875000000000000278 ) ) ;
#205 = FACE_OUTER_BOUND ( 'NONE', #184, .T. ) ;
#206 = MECHANICAL_CONTEXT ( 'NONE', #111, 'mechanical' ) ;
#207 = DIRECTION ( 'NONE',  ( -1.000000000000000000, -0.000000000000000000, -0.000000000000000000 ) ) ;
#208 = CC_DESIGN_PERSON_AND_ORGANIZATION_ASSIGNMENT ( #193, #180, ( #95 ) ) ;
#209 =( NAMED_UNIT ( * ) SI_UNIT ( $, .STERADIAN. ) SOLID_ANGLE_UNIT ( ) );
#210 = LOCAL_TIME ( 14, 41, 32.00000000000000000, #33 ) ;
#211 = PRODUCT_DEFINITION_SHAPE ( 'NONE', 'NONE',  #36 ) ;
#212 = EDGE_CURVE ( 'NONE', #99, #186, #109, .T. ) ;
#213 = PERSON_AND_ORGANIZATION_ROLE ( 'creator' ) ;
#214 = EDGE_LOOP ( 'NONE', ( #241, #40 ) ) ;
#215 = CALENDAR_DATE ( 2022, 27, 4 ) ;
#216 = DATE_AND_TIME ( #161, #164 ) ;
#217 = EDGE_LOOP ( 'NONE', ( #113, #237 ) ) ;
#218 = EDGE_CURVE ( 'NONE', #181, #99, #54, .T. ) ;
#219 = LOCAL_TIME ( 14, 41, 32.00000000000000000, #17 ) ;
#220 = CYLINDRICAL_SURFACE ( 'NONE', #157, 0.09842519685039370636 ) ;
#221 = CARTESIAN_POINT ( 'NONE',  ( -0.1250000000000000000, 0.000000000000000000, 0.000000000000000000 ) ) ;
#222 = DIRECTION ( 'NONE',  ( -1.000000000000000000, -0.000000000000000000, -0.000000000000000000 ) ) ;
#223 = AXIS2_PLACEMENT_3D ( 'NONE', #175, #151, #105 ) ;
#224 = FACE_OUTER_BOUND ( 'NONE', #250, .T. ) ;
#225 = DIRECTION ( 'NONE',  ( -0.000000000000000000, 0.000000000000000000, 1.000000000000000000 ) ) ;
#226 =( LENGTH_UNIT ( ) NAMED_UNIT ( * ) SI_UNIT ( $, .METRE. ) );
#227 = DIRECTION ( 'NONE',  ( 0.000000000000000000, 0.000000000000000000, 1.000000000000000000 ) ) ;
#228 = DIRECTION ( 'NONE',  ( -1.000000000000000000, -0.000000000000000000, -0.000000000000000000 ) ) ;
#229 = DIRECTION ( 'NONE',  ( 0.000000000000000000, 0.000000000000000000, 1.000000000000000000 ) ) ;
#230 = DIRECTION ( 'NONE',  ( -1.000000000000000000, -0.000000000000000000, -0.000000000000000000 ) ) ;
#231 = PERSON_AND_ORGANIZATION ( #171, #233 ) ;
#232 = DATE_TIME_ROLE ( 'creation_date' ) ;
#233 = ORGANIZATION ( 'UNSPECIFIED', 'UNSPECIFIED', '' ) ;
#234 = APPROVAL_ROLE ( '' ) ;
#235 = APPROVAL_STATUS ( 'not_yet_approved' ) ;
#236 = EDGE_CURVE ( 'NONE', #162, #197, #172, .T. ) ;
#237 = ORIENTED_EDGE ( 'NONE', *, *, #248, .F. ) ;
#238 = EDGE_CURVE ( 'NONE', #197, #91, #189, .T. ) ;
#239 = CARTESIAN_POINT ( 'NONE',  ( -0.1250000000000000000, 0.1875000000000000278, 0.000000000000000000 ) ) ;
#240 = ORIENTED_EDGE ( 'NONE', *, *, #159, .T. ) ;
#241 = ORIENTED_EDGE ( 'NONE', *, *, #200, .F. ) ;
#242 = VECTOR ( 'NONE', #134, 39.37007874015748143 ) ;
#243 = DIRECTION ( 'NONE',  ( -1.000000000000000000, -0.000000000000000000, -0.000000000000000000 ) ) ;
#244 = PERSON_AND_ORGANIZATION_ROLE ( 'design_owner' ) ;
#245 = VECTOR ( 'NONE', #230, 39.37007874015748143 ) ;
#246 = LENGTH_MEASURE_WITH_UNIT ( LENGTH_MEASURE( 0.02539999999999999897 ), #226 );
#247 = CARTESIAN_POINT ( 'NONE',  ( -0.1249999999999999861, 1.205361022782828035E-17, -0.09842519685039370636 ) ) ;
#248 = EDGE_CURVE ( 'NONE', #186, #99, #174, .T. ) ;
#249 = PERSON_AND_ORGANIZATION_ROLE ( 'classification_officer' ) ;
#250 = EDGE_LOOP ( 'NONE', ( #22, #135 ) ) ;
#251 = ORIENTED_EDGE ( 'NONE', *, *, #248, .T. ) ;
#252 = CARTESIAN_POINT ( 'NONE',  ( -0.1250000000000000000, 0.000000000000000000, 0.000000000000000000 ) ) ;
ENDSEC;
END-ISO-10303-21;
