ISO-10303-21;
HEADER;
FILE_DESCRIPTION (( 'STEP AP203' ),
    '1' );
FILE_NAME ('REV-21-2087.STEP',
    '2022-04-27T19:41:48',
    ( '' ),
    ( '' ),
    'SwSTEP 2.0',
    'SolidWorks 2022',
    '' );
FILE_SCHEMA (( 'CONFIG_CONTROL_DESIGN' ));
ENDSEC;

DATA;
#1 = CARTESIAN_POINT ( 'NONE',  ( -0.1875000000000000278, 0.000000000000000000, 0.000000000000000000 ) ) ;
#2 = DIRECTION ( 'NONE',  ( -1.000000000000000000, -0.000000000000000000, -0.000000000000000000 ) ) ;
#3 = ORIENTED_EDGE ( 'NONE', *, *, #86, .F. ) ;
#4 = VERTEX_POINT ( 'NONE', #96 ) ;
#5 = CARTESIAN_POINT ( 'NONE',  ( 0.1875000000000000278, 0.000000000000000000, 0.000000000000000000 ) ) ;
#6 = FACE_OUTER_BOUND ( 'NONE', #132, .T. ) ;
#7 = AXIS2_PLACEMENT_3D ( 'NONE', #220, #105, #238 ) ;
#8 = CARTESIAN_POINT ( 'NONE',  ( -0.1875000000000000278, 0.000000000000000000, 0.000000000000000000 ) ) ;
#9 = CC_DESIGN_APPROVAL ( #42, ( #207 ) ) ;
#10 = ADVANCED_FACE ( 'NONE', ( #80 ), #115, .F. ) ;
#11 = PERSON_AND_ORGANIZATION_ROLE ( 'design_supplier' ) ;
#12 = CIRCLE ( 'NONE', #150, 0.1875000000000000278 ) ;
#13 = PERSON_AND_ORGANIZATION ( #87, #244 ) ;
#14 = PERSON_AND_ORGANIZATION_ROLE ( 'classification_officer' ) ;
#15 = ORIENTED_EDGE ( 'NONE', *, *, #101, .F. ) ;
#16 = AXIS2_PLACEMENT_3D ( 'NONE', #183, #162, #200 ) ;
#17 = EDGE_CURVE ( 'NONE', #41, #24, #120, .T. ) ;
#18 = CARTESIAN_POINT ( 'NONE',  ( 0.1875000000000000278, 0.000000000000000000, 0.000000000000000000 ) ) ;
#19 = FACE_OUTER_BOUND ( 'NONE', #171, .T. ) ;
#20 = EDGE_CURVE ( 'NONE', #41, #55, #39, .T. ) ;
#21 = PRODUCT_DEFINITION_FORMATION_WITH_SPECIFIED_SOURCE ( 'ANY', '', #174, .NOT_KNOWN. ) ;
#22 = CARTESIAN_POINT ( 'NONE',  ( 0.1875000000000000278, 0.000000000000000000, 0.1875000000000000278 ) ) ;
#23 = DIRECTION ( 'NONE',  ( 1.000000000000000000, 0.000000000000000000, 0.000000000000000000 ) ) ;
#24 = VERTEX_POINT ( 'NONE', #211 ) ;
#25 = CC_DESIGN_APPROVAL ( #227, ( #245 ) ) ;
#26 = DIRECTION ( 'NONE',  ( -1.000000000000000000, -0.000000000000000000, -0.000000000000000000 ) ) ;
#27 = DIRECTION ( 'NONE',  ( -1.000000000000000000, -0.000000000000000000, -0.000000000000000000 ) ) ;
#28 = ADVANCED_FACE ( 'NONE', ( #252, #137 ), #135, .F. ) ;
#29 = CC_DESIGN_APPROVAL ( #58, ( #21 ) ) ;
#30 = CC_DESIGN_PERSON_AND_ORGANIZATION_ASSIGNMENT ( #84, #165, ( #174 ) ) ;
#31 = COORDINATED_UNIVERSAL_TIME_OFFSET ( 6, 0, .BEHIND. ) ;
#32 = APPROVAL_ROLE ( '' ) ;
#33 = EDGE_LOOP ( 'NONE', ( #154, #179, #232, #194 ) ) ;
#34 = EDGE_CURVE ( 'NONE', #55, #155, #213, .T. ) ;
#35 = CALENDAR_DATE ( 2022, 27, 4 ) ;
#36 = EDGE_CURVE ( 'NONE', #24, #155, #175, .T. ) ;
#37 = VERTEX_POINT ( 'NONE', #195 ) ;
#38 = CARTESIAN_POINT ( 'NONE',  ( -0.1875000000000000278, 2.296212748401287726E-17, -0.1875000000000000278 ) ) ;
#39 = CIRCLE ( 'NONE', #79, 0.1875000000000000278 ) ;
#40 = ORIENTED_EDGE ( 'NONE', *, *, #20, .T. ) ;
#41 = VERTEX_POINT ( 'NONE', #198 ) ;
#42 = APPROVAL ( #169, 'UNSPECIFIED' ) ;
#43 = DIRECTION ( 'NONE',  ( -1.000000000000000000, -0.000000000000000000, -0.000000000000000000 ) ) ;
#44 = DIRECTION ( 'NONE',  ( -1.000000000000000000, -0.000000000000000000, -0.000000000000000000 ) ) ;
#45 = CC_DESIGN_PERSON_AND_ORGANIZATION_ASSIGNMENT ( #71, #14, ( #207 ) ) ;
#46 = MECHANICAL_CONTEXT ( 'NONE', #50, 'mechanical' ) ;
#47 = AXIS2_PLACEMENT_3D ( 'NONE', #119, #23, #99 ) ;
#48 = CARTESIAN_POINT ( 'NONE',  ( -0.1875000000000000278, 0.000000000000000000, 0.000000000000000000 ) ) ;
#49 = APPROVAL_ROLE ( '' ) ;
#50 = APPLICATION_CONTEXT ( 'configuration controlled 3d designs of mechanical parts and assemblies' ) ;
#51 = SHAPE_DEFINITION_REPRESENTATION ( #117, #92 ) ;
#52 = CIRCLE ( 'NONE', #210, 0.09842519685039370636 ) ;
#53 = ORIENTED_EDGE ( 'NONE', *, *, #156, .F. ) ;
#54 = COORDINATED_UNIVERSAL_TIME_OFFSET ( 6, 0, .BEHIND. ) ;
#55 = VERTEX_POINT ( 'NONE', #22 ) ;
#56 = ORIENTED_EDGE ( 'NONE', *, *, #69, .F. ) ;
#57 = CLOSED_SHELL ( 'NONE', ( #167, #10, #76, #133, #28, #110 ) ) ;
#58 = APPROVAL ( #129, 'UNSPECIFIED' ) ;
#59 = CARTESIAN_POINT ( 'NONE',  ( 0.1875000000000000278, 0.000000000000000000, 0.000000000000000000 ) ) ;
#60 = ORIENTED_EDGE ( 'NONE', *, *, #101, .T. ) ;
#61 = DIRECTION ( 'NONE',  ( -1.000000000000000000, -0.000000000000000000, -0.000000000000000000 ) ) ;
#62 = DIRECTION ( 'NONE',  ( -1.000000000000000000, -0.000000000000000000, -0.000000000000000000 ) ) ;
#63 = CARTESIAN_POINT ( 'NONE',  ( -0.1875000000000000278, 0.000000000000000000, 0.000000000000000000 ) ) ;
#64 = DIRECTION ( 'NONE',  ( -1.000000000000000000, -0.000000000000000000, -0.000000000000000000 ) ) ;
#65 = DIRECTION ( 'NONE',  ( 0.000000000000000000, 0.000000000000000000, 1.000000000000000000 ) ) ;
#66 = APPROVAL_DATE_TIME ( #148, #42 ) ;
#67 = ORIENTED_EDGE ( 'NONE', *, *, #36, .T. ) ;
#68 = ORIENTED_EDGE ( 'NONE', *, *, #20, .F. ) ;
#69 = EDGE_CURVE ( 'NONE', #37, #111, #52, .T. ) ;
#70 = DATE_AND_TIME ( #226, #248 ) ;
#71 = PERSON_AND_ORGANIZATION ( #87, #244 ) ;
#72 = CARTESIAN_POINT ( 'NONE',  ( -0.1875000000000000278, 1.205361022782828035E-17, -0.09842519685039370636 ) ) ;
#73 = CIRCLE ( 'NONE', #217, 0.1875000000000000278 ) ;
#74 = DIRECTION ( 'NONE',  ( -0.000000000000000000, 0.000000000000000000, 1.000000000000000000 ) ) ;
#75 = DIRECTION ( 'NONE',  ( 0.000000000000000000, 0.000000000000000000, 1.000000000000000000 ) ) ;
#76 = ADVANCED_FACE ( 'NONE', ( #95, #19 ), #173, .F. ) ;
#77 = LINE ( 'NONE', #72, #191 ) ;
#78 = AXIS2_PLACEMENT_3D ( 'NONE', #82, #44, #241 ) ;
#79 = AXIS2_PLACEMENT_3D ( 'NONE', #59, #100, #161 ) ;
#80 = FACE_OUTER_BOUND ( 'NONE', #152, .T. ) ;
#81 = CC_DESIGN_DATE_AND_TIME_ASSIGNMENT ( #250, #131, ( #207 ) ) ;
#82 = CARTESIAN_POINT ( 'NONE',  ( -0.1875000000000000278, 0.000000000000000000, 0.000000000000000000 ) ) ;
#83 = FACE_OUTER_BOUND ( 'NONE', #33, .T. ) ;
#84 = PERSON_AND_ORGANIZATION ( #87, #244 ) ;
#85 = APPLICATION_PROTOCOL_DEFINITION ( 'international standard', 'config_control_design', 1994, #50 ) ;
#86 = EDGE_CURVE ( 'NONE', #111, #93, #77, .T. ) ;
#87 = PERSON ( 'UNSPECIFIED', 'UNSPECIFIED', 'UNSPECIFIED', ('UNSPECIFIED'), ('UNSPECIFIED'), ('UNSPECIFIED') ) ;
#88 = SECURITY_CLASSIFICATION_LEVEL ( 'unclassified' ) ;
#89 = EDGE_CURVE ( 'NONE', #4, #93, #247, .T. ) ;
#90 = CALENDAR_DATE ( 2022, 27, 4 ) ;
#91 = CIRCLE ( 'NONE', #235, 0.09842519685039370636 ) ;
#92 = ADVANCED_BREP_SHAPE_REPRESENTATION ( 'REV-21-2087', ( #125, #16 ), #219 ) ;
#93 = VERTEX_POINT ( 'NONE', #214 ) ;
#94 = COORDINATED_UNIVERSAL_TIME_OFFSET ( 6, 0, .BEHIND. ) ;
#95 = FACE_BOUND ( 'NONE', #215, .T. ) ;
#96 = CARTESIAN_POINT ( 'NONE',  ( -0.1875000000000000278, 0.000000000000000000, 0.09842519685039370636 ) ) ;
#97 = CC_DESIGN_SECURITY_CLASSIFICATION ( #207, ( #21 ) ) ;
#98 = DIRECTION ( 'NONE',  ( -1.000000000000000000, -0.000000000000000000, -0.000000000000000000 ) ) ;
#99 = DIRECTION ( 'NONE',  ( 0.000000000000000000, 0.000000000000000000, -1.000000000000000000 ) ) ;
#100 = DIRECTION ( 'NONE',  ( -1.000000000000000000, -0.000000000000000000, -0.000000000000000000 ) ) ;
#101 = EDGE_CURVE ( 'NONE', #111, #37, #196, .T. ) ;
#102 = DIRECTION ( 'NONE',  ( -1.000000000000000000, -0.000000000000000000, -0.000000000000000000 ) ) ;
#103 = DESIGN_CONTEXT ( 'detailed design', #251, 'design' ) ;
#104 = CYLINDRICAL_SURFACE ( 'NONE', #139, 0.1875000000000000278 ) ;
#105 = DIRECTION ( 'NONE',  ( -1.000000000000000000, -0.000000000000000000, -0.000000000000000000 ) ) ;
#106 = FACE_OUTER_BOUND ( 'NONE', #177, .T. ) ;
#107 = APPROVAL_DATE_TIME ( #208, #58 ) ;
#108 = LOCAL_TIME ( 14, 41, 48.00000000000000000, #204 ) ;
#109 = COORDINATED_UNIVERSAL_TIME_OFFSET ( 6, 0, .BEHIND. ) ;
#110 = ADVANCED_FACE ( 'NONE', ( #106 ), #104, .T. ) ;
#111 = VERTEX_POINT ( 'NONE', #126 ) ;
#112 = PERSON_AND_ORGANIZATION ( #87, #244 ) ;
#113 = ORIENTED_EDGE ( 'NONE', *, *, #17, .F. ) ;
#114 = LOCAL_TIME ( 14, 41, 48.00000000000000000, #54 ) ;
#115 = CYLINDRICAL_SURFACE ( 'NONE', #243, 0.09842519685039370636 ) ;
#116 = EDGE_LOOP ( 'NONE', ( #176, #60 ) ) ;
#117 = PRODUCT_DEFINITION_SHAPE ( 'NONE', 'NONE',  #245 ) ;
#118 = CARTESIAN_POINT ( 'NONE',  ( -0.1875000000000000278, 0.000000000000000000, 0.1875000000000000278 ) ) ;
#119 = CARTESIAN_POINT ( 'NONE',  ( -0.1875000000000000278, 0.1875000000000000278, 0.000000000000000000 ) ) ;
#120 = LINE ( 'NONE', #38, #187 ) ;
#121 = EDGE_CURVE ( 'NONE', #93, #4, #91, .T. ) ;
#122 = DIRECTION ( 'NONE',  ( 0.000000000000000000, 0.000000000000000000, 1.000000000000000000 ) ) ;
#123 = VECTOR ( 'NONE', #26, 39.37007874015748143 ) ;
#124 = DIRECTION ( 'NONE',  ( 0.000000000000000000, 0.000000000000000000, 1.000000000000000000 ) ) ;
#125 = MANIFOLD_SOLID_BREP ( 'Revolve1', #57 ) ;
#126 = CARTESIAN_POINT ( 'NONE',  ( 0.1875000000000000278, 1.205361022782828035E-17, -0.09842519685039370636 ) ) ;
#127 = LOCAL_TIME ( 14, 41, 48.00000000000000000, #31 ) ;
#128 = CARTESIAN_POINT ( 'NONE',  ( -0.1875000000000000278, 0.000000000000000000, 0.09842519685039370636 ) ) ;
#129 = APPROVAL_STATUS ( 'not_yet_approved' ) ;
#130 = PERSON_AND_ORGANIZATION ( #87, #244 ) ;
#131 = DATE_TIME_ROLE ( 'classification_date' ) ;
#132 = EDGE_LOOP ( 'NONE', ( #3, #56, #246, #199 ) ) ;
#133 = ADVANCED_FACE ( 'NONE', ( #6 ), #218, .F. ) ;
#134 = AXIS2_PLACEMENT_3D ( 'NONE', #147, #102, #182 ) ;
#135 = PLANE ( 'NONE',  #146 ) ;
#136 = PRODUCT_RELATED_PRODUCT_CATEGORY ( 'detail', '', ( #174 ) ) ;
#137 = FACE_BOUND ( 'NONE', #116, .T. ) ;
#138 = DIRECTION ( 'NONE',  ( 0.000000000000000000, 0.000000000000000000, 1.000000000000000000 ) ) ;
#139 = AXIS2_PLACEMENT_3D ( 'NONE', #240, #27, #65 ) ;
#140 = DIRECTION ( 'NONE',  ( 0.000000000000000000, 0.000000000000000000, 1.000000000000000000 ) ) ;
#141 = DIRECTION ( 'NONE',  ( -1.000000000000000000, -0.000000000000000000, -0.000000000000000000 ) ) ;
#142 =( LENGTH_UNIT ( ) NAMED_UNIT ( * ) SI_UNIT ( $, .METRE. ) );
#143 = APPROVAL_PERSON_ORGANIZATION ( #222, #227, #188 ) ;
#144 = LINE ( 'NONE', #128, #123 ) ;
#145 = APPLICATION_PROTOCOL_DEFINITION ( 'international standard', 'config_control_design', 1994, #251 ) ;
#146 = AXIS2_PLACEMENT_3D ( 'NONE', #212, #237, #74 ) ;
#147 = CARTESIAN_POINT ( 'NONE',  ( 0.1875000000000000278, 0.000000000000000000, 0.000000000000000000 ) ) ;
#148 = DATE_AND_TIME ( #35, #127 ) ;
#149 = ORIENTED_EDGE ( 'NONE', *, *, #89, .F. ) ;
#150 = AXIS2_PLACEMENT_3D ( 'NONE', #48, #43, #203 ) ;
#151 = CALENDAR_DATE ( 2022, 27, 4 ) ;
#152 = EDGE_LOOP ( 'NONE', ( #15, #178, #189, #53 ) ) ;
#153 = PERSON_AND_ORGANIZATION ( #87, #244 ) ;
#154 = ORIENTED_EDGE ( 'NONE', *, *, #216, .T. ) ;
#155 = VERTEX_POINT ( 'NONE', #166 ) ;
#156 = EDGE_CURVE ( 'NONE', #37, #4, #144, .T. ) ;
#157 = DIRECTION ( 'NONE',  ( -1.000000000000000000, -0.000000000000000000, -0.000000000000000000 ) ) ;
#158 = DIRECTION ( 'NONE',  ( 0.000000000000000000, 0.000000000000000000, 1.000000000000000000 ) ) ;
#159 = DIRECTION ( 'NONE',  ( -1.000000000000000000, -0.000000000000000000, -0.000000000000000000 ) ) ;
#160 = APPROVAL_PERSON_ORGANIZATION ( #130, #58, #32 ) ;
#161 = DIRECTION ( 'NONE',  ( 0.000000000000000000, 0.000000000000000000, 1.000000000000000000 ) ) ;
#162 = DIRECTION ( 'NONE',  ( 0.000000000000000000, 0.000000000000000000, 1.000000000000000000 ) ) ;
#163 = UNCERTAINTY_MEASURE_WITH_UNIT (LENGTH_MEASURE( 1.000000000000000082E-05 ), #221, 'distance_accuracy_value', 'NONE');
#164 = CYLINDRICAL_SURFACE ( 'NONE', #7, 0.1875000000000000278 ) ;
#165 = PERSON_AND_ORGANIZATION_ROLE ( 'design_owner' ) ;
#166 = CARTESIAN_POINT ( 'NONE',  ( -0.1875000000000000278, 0.000000000000000000, 0.1875000000000000278 ) ) ;
#167 = ADVANCED_FACE ( 'NONE', ( #83 ), #164, .T. ) ;
#168 = AXIS2_PLACEMENT_3D ( 'NONE', #236, #62, #140 ) ;
#169 = APPROVAL_STATUS ( 'not_yet_approved' ) ;
#170 = ORIENTED_EDGE ( 'NONE', *, *, #216, .F. ) ;
#171 = EDGE_LOOP ( 'NONE', ( #234, #67 ) ) ;
#172 = APPROVAL_STATUS ( 'not_yet_approved' ) ;
#173 = PLANE ( 'NONE',  #47 ) ;
#174 = PRODUCT ( 'REV-21-2087', 'REV-21-2087', '', ( #46 ) ) ;
#175 = CIRCLE ( 'NONE', #206, 0.1875000000000000278 ) ;
#176 = ORIENTED_EDGE ( 'NONE', *, *, #69, .T. ) ;
#177 = EDGE_LOOP ( 'NONE', ( #113, #40, #231, #197 ) ) ;
#178 = ORIENTED_EDGE ( 'NONE', *, *, #86, .T. ) ;
#179 = ORIENTED_EDGE ( 'NONE', *, *, #17, .T. ) ;
#180 = DIRECTION ( 'NONE',  ( -1.000000000000000000, -0.000000000000000000, -0.000000000000000000 ) ) ;
#181 = CC_DESIGN_PERSON_AND_ORGANIZATION_ASSIGNMENT ( #112, #228, ( #21 ) ) ;
#182 = DIRECTION ( 'NONE',  ( 0.000000000000000000, 0.000000000000000000, 1.000000000000000000 ) ) ;
#183 = CARTESIAN_POINT ( 'NONE',  ( 0.000000000000000000, 0.000000000000000000, 0.000000000000000000 ) ) ;
#184 =( NAMED_UNIT ( * ) SI_UNIT ( $, .STERADIAN. ) SOLID_ANGLE_UNIT ( ) );
#185 = PERSON_AND_ORGANIZATION_ROLE ( 'creator' ) ;
#186 = CC_DESIGN_PERSON_AND_ORGANIZATION_ASSIGNMENT ( #13, #11, ( #21 ) ) ;
#187 = VECTOR ( 'NONE', #157, 39.37007874015748143 ) ;
#188 = APPROVAL_ROLE ( '' ) ;
#189 = ORIENTED_EDGE ( 'NONE', *, *, #121, .T. ) ;
#190 = DIMENSIONAL_EXPONENTS ( 1.000000000000000000, 0.000000000000000000, 0.000000000000000000, 0.000000000000000000, 0.000000000000000000, 0.000000000000000000, 0.000000000000000000 ) ;
#191 = VECTOR ( 'NONE', #159, 39.37007874015748143 ) ;
#192 = LOCAL_TIME ( 14, 41, 48.00000000000000000, #109 ) ;
#193 = CC_DESIGN_DATE_AND_TIME_ASSIGNMENT ( #230, #205, ( #245 ) ) ;
#194 = ORIENTED_EDGE ( 'NONE', *, *, #34, .F. ) ;
#195 = CARTESIAN_POINT ( 'NONE',  ( 0.1875000000000000278, 0.000000000000000000, 0.09842519685039370636 ) ) ;
#196 = CIRCLE ( 'NONE', #134, 0.09842519685039370636 ) ;
#197 = ORIENTED_EDGE ( 'NONE', *, *, #36, .F. ) ;
#198 = CARTESIAN_POINT ( 'NONE',  ( 0.1875000000000000278, 2.296212748401287726E-17, -0.1875000000000000278 ) ) ;
#199 = ORIENTED_EDGE ( 'NONE', *, *, #89, .T. ) ;
#200 = DIRECTION ( 'NONE',  ( 1.000000000000000000, 0.000000000000000000, 0.000000000000000000 ) ) ;
#201 = EDGE_CURVE ( 'NONE', #155, #24, #12, .T. ) ;
#202 = LENGTH_MEASURE_WITH_UNIT ( LENGTH_MEASURE( 0.02539999999999999897 ), #142 );
#203 = DIRECTION ( 'NONE',  ( 0.000000000000000000, 0.000000000000000000, 1.000000000000000000 ) ) ;
#204 = COORDINATED_UNIVERSAL_TIME_OFFSET ( 6, 0, .BEHIND. ) ;
#205 = DATE_TIME_ROLE ( 'creation_date' ) ;
#206 = AXIS2_PLACEMENT_3D ( 'NONE', #63, #141, #158 ) ;
#207 = SECURITY_CLASSIFICATION ( '', '', #88 ) ;
#208 = DATE_AND_TIME ( #151, #192 ) ;
#209 = APPROVAL_DATE_TIME ( #70, #227 ) ;
#210 = AXIS2_PLACEMENT_3D ( 'NONE', #18, #61, #138 ) ;
#211 = CARTESIAN_POINT ( 'NONE',  ( -0.1875000000000000278, 2.296212748401287726E-17, -0.1875000000000000278 ) ) ;
#212 = CARTESIAN_POINT ( 'NONE',  ( 0.1875000000000000278, 0.1875000000000000278, 0.000000000000000000 ) ) ;
#213 = LINE ( 'NONE', #118, #239 ) ;
#214 = CARTESIAN_POINT ( 'NONE',  ( -0.1875000000000000278, 1.205361022782828035E-17, -0.09842519685039370636 ) ) ;
#215 = EDGE_LOOP ( 'NONE', ( #149, #249 ) ) ;
#216 = EDGE_CURVE ( 'NONE', #55, #41, #73, .T. ) ;
#217 = AXIS2_PLACEMENT_3D ( 'NONE', #5, #64, #122 ) ;
#218 = CYLINDRICAL_SURFACE ( 'NONE', #78, 0.09842519685039370636 ) ;
#219 =( GEOMETRIC_REPRESENTATION_CONTEXT ( 3 ) GLOBAL_UNCERTAINTY_ASSIGNED_CONTEXT ( ( #163 ) ) GLOBAL_UNIT_ASSIGNED_CONTEXT ( ( #221, #242, #184 ) ) REPRESENTATION_CONTEXT ( 'NONE', 'WORKASPACE' ) );
#220 = CARTESIAN_POINT ( 'NONE',  ( -0.1875000000000000278, 0.000000000000000000, 0.000000000000000000 ) ) ;
#221 =( CONVERSION_BASED_UNIT ( 'INCH', #202 ) LENGTH_UNIT ( ) NAMED_UNIT ( #190 ) );
#222 = PERSON_AND_ORGANIZATION ( #87, #244 ) ;
#223 = APPROVAL_PERSON_ORGANIZATION ( #225, #42, #49 ) ;
#224 = CC_DESIGN_PERSON_AND_ORGANIZATION_ASSIGNMENT ( #153, #185, ( #245 ) ) ;
#225 = PERSON_AND_ORGANIZATION ( #87, #244 ) ;
#226 = CALENDAR_DATE ( 2022, 27, 4 ) ;
#227 = APPROVAL ( #172, 'UNSPECIFIED' ) ;
#228 = PERSON_AND_ORGANIZATION_ROLE ( 'creator' ) ;
#229 = CALENDAR_DATE ( 2022, 27, 4 ) ;
#230 = DATE_AND_TIME ( #229, #114 ) ;
#231 = ORIENTED_EDGE ( 'NONE', *, *, #34, .T. ) ;
#232 = ORIENTED_EDGE ( 'NONE', *, *, #201, .F. ) ;
#233 = EDGE_LOOP ( 'NONE', ( #170, #68 ) ) ;
#234 = ORIENTED_EDGE ( 'NONE', *, *, #201, .T. ) ;
#235 = AXIS2_PLACEMENT_3D ( 'NONE', #8, #180, #124 ) ;
#236 = CARTESIAN_POINT ( 'NONE',  ( -0.1875000000000000278, 0.000000000000000000, 0.000000000000000000 ) ) ;
#237 = DIRECTION ( 'NONE',  ( -1.000000000000000000, 0.000000000000000000, -0.000000000000000000 ) ) ;
#238 = DIRECTION ( 'NONE',  ( 0.000000000000000000, 0.000000000000000000, 1.000000000000000000 ) ) ;
#239 = VECTOR ( 'NONE', #98, 39.37007874015748143 ) ;
#240 = CARTESIAN_POINT ( 'NONE',  ( -0.1875000000000000278, 0.000000000000000000, 0.000000000000000000 ) ) ;
#241 = DIRECTION ( 'NONE',  ( 0.000000000000000000, 0.000000000000000000, 1.000000000000000000 ) ) ;
#242 =( NAMED_UNIT ( * ) PLANE_ANGLE_UNIT ( ) SI_UNIT ( $, .RADIAN. ) );
#243 = AXIS2_PLACEMENT_3D ( 'NONE', #1, #2, #75 ) ;
#244 = ORGANIZATION ( 'UNSPECIFIED', 'UNSPECIFIED', '' ) ;
#245 = PRODUCT_DEFINITION ( 'UNKNOWN', '', #21, #103 ) ;
#246 = ORIENTED_EDGE ( 'NONE', *, *, #156, .T. ) ;
#247 = CIRCLE ( 'NONE', #168, 0.09842519685039370636 ) ;
#248 = LOCAL_TIME ( 14, 41, 48.00000000000000000, #94 ) ;
#249 = ORIENTED_EDGE ( 'NONE', *, *, #121, .F. ) ;
#250 = DATE_AND_TIME ( #90, #108 ) ;
#251 = APPLICATION_CONTEXT ( 'configuration controlled 3d designs of mechanical parts and assemblies' ) ;
#252 = FACE_OUTER_BOUND ( 'NONE', #233, .T. ) ;
ENDSEC;
END-ISO-10303-21;
