ISO-10303-21;
HEADER;
FILE_DESCRIPTION (( 'STEP AP203' ),
    '1' );
FILE_NAME ('REV-21-2089.STEP',
    '2022-04-27T19:42:26',
    ( '' ),
    ( '' ),
    'SwSTEP 2.0',
    'SolidWorks 2022',
    '' );
FILE_SCHEMA (( 'CONFIG_CONTROL_DESIGN' ));
ENDSEC;

DATA;
#1 = PERSON_AND_ORGANIZATION ( #123, #40 ) ;
#2 = PERSON_AND_ORGANIZATION ( #123, #40 ) ;
#3 = PERSON_AND_ORGANIZATION ( #123, #40 ) ;
#4 = CC_DESIGN_PERSON_AND_ORGANIZATION_ASSIGNMENT ( #136, #7, ( #63 ) ) ;
#5 =( NAMED_UNIT ( * ) SI_UNIT ( $, .STERADIAN. ) SOLID_ANGLE_UNIT ( ) );
#6 = CLOSED_SHELL ( 'NONE', ( #209, #11, #92, #106, #153, #21 ) ) ;
#7 = PERSON_AND_ORGANIZATION_ROLE ( 'creator' ) ;
#8 = PRODUCT_RELATED_PRODUCT_CATEGORY ( 'detail', '', ( #217 ) ) ;
#9 = EDGE_LOOP ( 'NONE', ( #229, #227 ) ) ;
#10 = CARTESIAN_POINT ( 'NONE',  ( -0.3750000000000000555, 2.296212748401287726E-17, -0.1875000000000000278 ) ) ;
#11 = ADVANCED_FACE ( 'NONE', ( #125 ), #186, .F. ) ;
#12 = FACE_OUTER_BOUND ( 'NONE', #185, .T. ) ;
#13 = ORIENTED_EDGE ( 'NONE', *, *, #18, .T. ) ;
#14 = CARTESIAN_POINT ( 'NONE',  ( -0.3750000000000000555, 0.000000000000000000, 0.000000000000000000 ) ) ;
#15 = DIRECTION ( 'NONE',  ( -1.000000000000000000, -0.000000000000000000, -0.000000000000000000 ) ) ;
#16 = CARTESIAN_POINT ( 'NONE',  ( -0.3750000000000000555, 0.000000000000000000, 0.000000000000000000 ) ) ;
#17 = FACE_OUTER_BOUND ( 'NONE', #62, .T. ) ;
#18 = EDGE_CURVE ( 'NONE', #88, #240, #53, .T. ) ;
#19 = AXIS2_PLACEMENT_3D ( 'NONE', #252, #151, #39 ) ;
#20 = PERSON_AND_ORGANIZATION_ROLE ( 'design_supplier' ) ;
#21 = ADVANCED_FACE ( 'NONE', ( #48 ), #109, .T. ) ;
#22 = COORDINATED_UNIVERSAL_TIME_OFFSET ( 6, 0, .BEHIND. ) ;
#23 = ORIENTED_EDGE ( 'NONE', *, *, #250, .F. ) ;
#24 = AXIS2_PLACEMENT_3D ( 'NONE', #208, #91, #148 ) ;
#25 = DIRECTION ( 'NONE',  ( 0.000000000000000000, 0.000000000000000000, 1.000000000000000000 ) ) ;
#26 = LENGTH_MEASURE_WITH_UNIT ( LENGTH_MEASURE( 0.02539999999999999897 ), #95 );
#27 = AXIS2_PLACEMENT_3D ( 'NONE', #54, #149, #173 ) ;
#28 = CARTESIAN_POINT ( 'NONE',  ( -0.3750000000000000555, 2.296212748401287726E-17, -0.1875000000000000278 ) ) ;
#29 = EDGE_CURVE ( 'NONE', #178, #199, #66, .T. ) ;
#30 = LINE ( 'NONE', #28, #163 ) ;
#31 = CIRCLE ( 'NONE', #158, 0.1875000000000000278 ) ;
#32 = EDGE_LOOP ( 'NONE', ( #241, #207, #176, #23 ) ) ;
#33 = EDGE_LOOP ( 'NONE', ( #82, #60, #224, #79 ) ) ;
#34 = DIRECTION ( 'NONE',  ( 0.000000000000000000, 0.000000000000000000, 1.000000000000000000 ) ) ;
#35 = ADVANCED_BREP_SHAPE_REPRESENTATION ( 'REV-21-2089', ( #126, #172 ), #57 ) ;
#36 = FACE_OUTER_BOUND ( 'NONE', #141, .T. ) ;
#37 = CYLINDRICAL_SURFACE ( 'NONE', #114, 0.1875000000000000278 ) ;
#38 = EDGE_CURVE ( 'NONE', #65, #240, #219, .T. ) ;
#39 = DIRECTION ( 'NONE',  ( -0.000000000000000000, 0.000000000000000000, 1.000000000000000000 ) ) ;
#40 = ORGANIZATION ( 'UNSPECIFIED', 'UNSPECIFIED', '' ) ;
#41 = EDGE_CURVE ( 'NONE', #156, #65, #30, .T. ) ;
#42 = PERSON_AND_ORGANIZATION ( #123, #40 ) ;
#43 = PRODUCT_DEFINITION_SHAPE ( 'NONE', 'NONE',  #63 ) ;
#44 = DATE_AND_TIME ( #155, #103 ) ;
#45 = APPROVAL_ROLE ( '' ) ;
#46 = AXIS2_PLACEMENT_3D ( 'NONE', #129, #89, #159 ) ;
#47 = ORIENTED_EDGE ( 'NONE', *, *, #41, .T. ) ;
#48 = FACE_OUTER_BOUND ( 'NONE', #104, .T. ) ;
#49 = LINE ( 'NONE', #128, #200 ) ;
#50 = ORIENTED_EDGE ( 'NONE', *, *, #29, .T. ) ;
#51 = UNCERTAINTY_MEASURE_WITH_UNIT (LENGTH_MEASURE( 1.000000000000000082E-05 ), #117, 'distance_accuracy_value', 'NONE');
#52 = APPROVAL ( #138, 'UNSPECIFIED' ) ;
#53 = LINE ( 'NONE', #162, #184 ) ;
#54 = CARTESIAN_POINT ( 'NONE',  ( 0.3750000000000000555, 0.000000000000000000, 0.000000000000000000 ) ) ;
#55 = FACE_BOUND ( 'NONE', #226, .T. ) ;
#56 = APPROVAL_PERSON_ORGANIZATION ( #140, #190, #59 ) ;
#57 =( GEOMETRIC_REPRESENTATION_CONTEXT ( 3 ) GLOBAL_UNCERTAINTY_ASSIGNED_CONTEXT ( ( #51 ) ) GLOBAL_UNIT_ASSIGNED_CONTEXT ( ( #117, #76, #5 ) ) REPRESENTATION_CONTEXT ( 'NONE', 'WORKASPACE' ) );
#58 = APPROVAL_DATE_TIME ( #137, #190 ) ;
#59 = APPROVAL_ROLE ( '' ) ;
#60 = ORIENTED_EDGE ( 'NONE', *, *, #29, .F. ) ;
#61 = CALENDAR_DATE ( 2022, 27, 4 ) ;
#62 = EDGE_LOOP ( 'NONE', ( #72, #99 ) ) ;
#63 = PRODUCT_DEFINITION ( 'UNKNOWN', '', #71, #232 ) ;
#64 = APPROVAL_STATUS ( 'not_yet_approved' ) ;
#65 = VERTEX_POINT ( 'NONE', #10 ) ;
#66 = CIRCLE ( 'NONE', #74, 0.09842519685039370636 ) ;
#67 = DIRECTION ( 'NONE',  ( -1.000000000000000000, -0.000000000000000000, -0.000000000000000000 ) ) ;
#68 = DIRECTION ( 'NONE',  ( 1.000000000000000000, 0.000000000000000000, 0.000000000000000000 ) ) ;
#69 = DIRECTION ( 'NONE',  ( -1.000000000000000000, -0.000000000000000000, -0.000000000000000000 ) ) ;
#70 = AXIS2_PLACEMENT_3D ( 'NONE', #16, #93, #94 ) ;
#71 = PRODUCT_DEFINITION_FORMATION_WITH_SPECIFIED_SOURCE ( 'ANY', '', #217, .NOT_KNOWN. ) ;
#72 = ORIENTED_EDGE ( 'NONE', *, *, #81, .F. ) ;
#73 = CARTESIAN_POINT ( 'NONE',  ( -0.3750000000000000555, 0.000000000000000000, 0.000000000000000000 ) ) ;
#74 = AXIS2_PLACEMENT_3D ( 'NONE', #108, #203, #127 ) ;
#75 = DIRECTION ( 'NONE',  ( 0.000000000000000000, 0.000000000000000000, 1.000000000000000000 ) ) ;
#76 =( NAMED_UNIT ( * ) PLANE_ANGLE_UNIT ( ) SI_UNIT ( $, .RADIAN. ) );
#77 = LOCAL_TIME ( 14, 42, 26.00000000000000000, #198 ) ;
#78 = PERSON_AND_ORGANIZATION ( #123, #40 ) ;
#79 = ORIENTED_EDGE ( 'NONE', *, *, #218, .T. ) ;
#80 = CARTESIAN_POINT ( 'NONE',  ( 0.000000000000000000, 0.000000000000000000, 0.000000000000000000 ) ) ;
#81 = EDGE_CURVE ( 'NONE', #88, #156, #31, .T. ) ;
#82 = ORIENTED_EDGE ( 'NONE', *, *, #102, .F. ) ;
#83 = CIRCLE ( 'NONE', #27, 0.1875000000000000278 ) ;
#84 = APPROVAL_STATUS ( 'not_yet_approved' ) ;
#85 = DIRECTION ( 'NONE',  ( -1.000000000000000000, -0.000000000000000000, -0.000000000000000000 ) ) ;
#86 = CARTESIAN_POINT ( 'NONE',  ( 0.3750000000000000555, 0.000000000000000000, 0.000000000000000000 ) ) ;
#87 = PLANE ( 'NONE',  #171 ) ;
#88 = VERTEX_POINT ( 'NONE', #204 ) ;
#89 = DIRECTION ( 'NONE',  ( -1.000000000000000000, -0.000000000000000000, -0.000000000000000000 ) ) ;
#90 = APPROVAL_PERSON_ORGANIZATION ( #221, #52, #220 ) ;
#91 = DIRECTION ( 'NONE',  ( -1.000000000000000000, -0.000000000000000000, -0.000000000000000000 ) ) ;
#92 = ADVANCED_FACE ( 'NONE', ( #105, #12 ), #87, .F. ) ;
#93 = DIRECTION ( 'NONE',  ( -1.000000000000000000, -0.000000000000000000, -0.000000000000000000 ) ) ;
#94 = DIRECTION ( 'NONE',  ( 0.000000000000000000, 0.000000000000000000, 1.000000000000000000 ) ) ;
#95 =( LENGTH_UNIT ( ) NAMED_UNIT ( * ) SI_UNIT ( $, .METRE. ) );
#96 = DIRECTION ( 'NONE',  ( 1.000000000000000000, 0.000000000000000000, 0.000000000000000000 ) ) ;
#97 = DATE_TIME_ROLE ( 'creation_date' ) ;
#98 = AXIS2_PLACEMENT_3D ( 'NONE', #213, #135, #187 ) ;
#99 = ORIENTED_EDGE ( 'NONE', *, *, #170, .F. ) ;
#100 = APPLICATION_PROTOCOL_DEFINITION ( 'international standard', 'config_control_design', 1994, #101 ) ;
#101 = APPLICATION_CONTEXT ( 'configuration controlled 3d designs of mechanical parts and assemblies' ) ;
#102 = EDGE_CURVE ( 'NONE', #199, #121, #49, .T. ) ;
#103 = LOCAL_TIME ( 14, 42, 26.00000000000000000, #175 ) ;
#104 = EDGE_LOOP ( 'NONE', ( #107, #206, #13, #166 ) ) ;
#105 = FACE_BOUND ( 'NONE', #9, .T. ) ;
#106 = ADVANCED_FACE ( 'NONE', ( #112 ), #234, .F. ) ;
#107 = ORIENTED_EDGE ( 'NONE', *, *, #41, .F. ) ;
#108 = CARTESIAN_POINT ( 'NONE',  ( 0.3750000000000000555, 0.000000000000000000, 0.000000000000000000 ) ) ;
#109 = CYLINDRICAL_SURFACE ( 'NONE', #46, 0.1875000000000000278 ) ;
#110 = APPROVAL_PERSON_ORGANIZATION ( #3, #214, #45 ) ;
#111 = CARTESIAN_POINT ( 'NONE',  ( -0.3750000000000000555, 0.000000000000000000, 0.000000000000000000 ) ) ;
#112 = FACE_OUTER_BOUND ( 'NONE', #33, .T. ) ;
#113 = CARTESIAN_POINT ( 'NONE',  ( -0.3750000000000000555, 0.000000000000000000, 0.09842519685039370636 ) ) ;
#114 = AXIS2_PLACEMENT_3D ( 'NONE', #111, #15, #75 ) ;
#115 = CALENDAR_DATE ( 2022, 27, 4 ) ;
#116 = DIMENSIONAL_EXPONENTS ( 1.000000000000000000, 0.000000000000000000, 0.000000000000000000, 0.000000000000000000, 0.000000000000000000, 0.000000000000000000, 0.000000000000000000 ) ;
#117 =( CONVERSION_BASED_UNIT ( 'INCH', #26 ) LENGTH_UNIT ( ) NAMED_UNIT ( #116 ) );
#118 = CC_DESIGN_DATE_AND_TIME_ASSIGNMENT ( #197, #97, ( #63 ) ) ;
#119 = PERSON_AND_ORGANIZATION_ROLE ( 'classification_officer' ) ;
#120 = COORDINATED_UNIVERSAL_TIME_OFFSET ( 6, 0, .BEHIND. ) ;
#121 = VERTEX_POINT ( 'NONE', #189 ) ;
#122 = AXIS2_PLACEMENT_3D ( 'NONE', #174, #251, #233 ) ;
#123 = PERSON ( 'UNSPECIFIED', 'UNSPECIFIED', 'UNSPECIFIED', ('UNSPECIFIED'), ('UNSPECIFIED'), ('UNSPECIFIED') ) ;
#124 = SHAPE_DEFINITION_REPRESENTATION ( #43, #35 ) ;
#125 = FACE_OUTER_BOUND ( 'NONE', #32, .T. ) ;
#126 = MANIFOLD_SOLID_BREP ( 'Revolve1', #6 ) ;
#127 = DIRECTION ( 'NONE',  ( 0.000000000000000000, 0.000000000000000000, 1.000000000000000000 ) ) ;
#128 = CARTESIAN_POINT ( 'NONE',  ( -0.3750000000000000555, 1.205361022782828035E-17, -0.09842519685039370636 ) ) ;
#129 = CARTESIAN_POINT ( 'NONE',  ( -0.3750000000000000555, 0.000000000000000000, 0.000000000000000000 ) ) ;
#130 = APPLICATION_CONTEXT ( 'configuration controlled 3d designs of mechanical parts and assemblies' ) ;
#131 = CARTESIAN_POINT ( 'NONE',  ( -0.3750000000000000555, 0.000000000000000000, 0.000000000000000000 ) ) ;
#132 = PLANE ( 'NONE',  #19 ) ;
#133 = LINE ( 'NONE', #113, #248 ) ;
#134 = DIRECTION ( 'NONE',  ( -1.000000000000000000, -0.000000000000000000, -0.000000000000000000 ) ) ;
#135 = DIRECTION ( 'NONE',  ( -1.000000000000000000, -0.000000000000000000, -0.000000000000000000 ) ) ;
#136 = PERSON_AND_ORGANIZATION ( #123, #40 ) ;
#137 = DATE_AND_TIME ( #195, #77 ) ;
#138 = APPROVAL_STATUS ( 'not_yet_approved' ) ;
#139 = DATE_TIME_ROLE ( 'classification_date' ) ;
#140 = PERSON_AND_ORGANIZATION ( #123, #40 ) ;
#141 = EDGE_LOOP ( 'NONE', ( #245, #47, #194, #164 ) ) ;
#142 = LOCAL_TIME ( 14, 42, 26.00000000000000000, #216 ) ;
#143 = DIRECTION ( 'NONE',  ( 0.000000000000000000, 0.000000000000000000, 1.000000000000000000 ) ) ;
#144 = DIRECTION ( 'NONE',  ( 0.000000000000000000, 0.000000000000000000, -1.000000000000000000 ) ) ;
#145 = CC_DESIGN_DATE_AND_TIME_ASSIGNMENT ( #157, #139, ( #201 ) ) ;
#146 = ORIENTED_EDGE ( 'NONE', *, *, #38, .T. ) ;
#147 = DIRECTION ( 'NONE',  ( 0.000000000000000000, 0.000000000000000000, 1.000000000000000000 ) ) ;
#148 = DIRECTION ( 'NONE',  ( 0.000000000000000000, 0.000000000000000000, 1.000000000000000000 ) ) ;
#149 = DIRECTION ( 'NONE',  ( -1.000000000000000000, -0.000000000000000000, -0.000000000000000000 ) ) ;
#150 = DIRECTION ( 'NONE',  ( -1.000000000000000000, -0.000000000000000000, -0.000000000000000000 ) ) ;
#151 = DIRECTION ( 'NONE',  ( -1.000000000000000000, 0.000000000000000000, -0.000000000000000000 ) ) ;
#152 = CARTESIAN_POINT ( 'NONE',  ( 0.3750000000000000555, 0.000000000000000000, 0.09842519685039370636 ) ) ;
#153 = ADVANCED_FACE ( 'NONE', ( #17, #55 ), #132, .F. ) ;
#154 = DATE_AND_TIME ( #115, #242 ) ;
#155 = CALENDAR_DATE ( 2022, 27, 4 ) ;
#156 = VERTEX_POINT ( 'NONE', #169 ) ;
#157 = DATE_AND_TIME ( #61, #142 ) ;
#158 = AXIS2_PLACEMENT_3D ( 'NONE', #86, #67, #143 ) ;
#159 = DIRECTION ( 'NONE',  ( 0.000000000000000000, 0.000000000000000000, 1.000000000000000000 ) ) ;
#160 = APPROVAL_DATE_TIME ( #154, #52 ) ;
#161 = EDGE_CURVE ( 'NONE', #199, #178, #192, .T. ) ;
#162 = CARTESIAN_POINT ( 'NONE',  ( -0.3750000000000000555, 0.000000000000000000, 0.1875000000000000278 ) ) ;
#163 = VECTOR ( 'NONE', #182, 39.37007874015748143 ) ;
#164 = ORIENTED_EDGE ( 'NONE', *, *, #18, .F. ) ;
#165 = ORIENTED_EDGE ( 'NONE', *, *, #228, .T. ) ;
#166 = ORIENTED_EDGE ( 'NONE', *, *, #38, .F. ) ;
#167 = CC_DESIGN_PERSON_AND_ORGANIZATION_ASSIGNMENT ( #1, #215, ( #71 ) ) ;
#168 = AXIS2_PLACEMENT_3D ( 'NONE', #131, #69, #34 ) ;
#169 = CARTESIAN_POINT ( 'NONE',  ( 0.3750000000000000555, 2.296212748401287726E-17, -0.1875000000000000278 ) ) ;
#170 = EDGE_CURVE ( 'NONE', #156, #88, #83, .T. ) ;
#171 = AXIS2_PLACEMENT_3D ( 'NONE', #243, #68, #144 ) ;
#172 = AXIS2_PLACEMENT_3D ( 'NONE', #80, #25, #96 ) ;
#173 = DIRECTION ( 'NONE',  ( 0.000000000000000000, 0.000000000000000000, 1.000000000000000000 ) ) ;
#174 = CARTESIAN_POINT ( 'NONE',  ( 0.3750000000000000555, 0.000000000000000000, 0.000000000000000000 ) ) ;
#175 = COORDINATED_UNIVERSAL_TIME_OFFSET ( 6, 0, .BEHIND. ) ;
#176 = ORIENTED_EDGE ( 'NONE', *, *, #202, .T. ) ;
#177 = MECHANICAL_CONTEXT ( 'NONE', #130, 'mechanical' ) ;
#178 = VERTEX_POINT ( 'NONE', #152 ) ;
#179 = CALENDAR_DATE ( 2022, 27, 4 ) ;
#180 = CC_DESIGN_PERSON_AND_ORGANIZATION_ASSIGNMENT ( #2, #20, ( #71 ) ) ;
#181 = CC_DESIGN_APPROVAL ( #190, ( #63 ) ) ;
#182 = DIRECTION ( 'NONE',  ( -1.000000000000000000, -0.000000000000000000, -0.000000000000000000 ) ) ;
#183 = VERTEX_POINT ( 'NONE', #211 ) ;
#184 = VECTOR ( 'NONE', #85, 39.37007874015748143 ) ;
#185 = EDGE_LOOP ( 'NONE', ( #165, #146 ) ) ;
#186 = CYLINDRICAL_SURFACE ( 'NONE', #168, 0.09842519685039370636 ) ;
#187 = DIRECTION ( 'NONE',  ( 0.000000000000000000, 0.000000000000000000, 1.000000000000000000 ) ) ;
#188 = AXIS2_PLACEMENT_3D ( 'NONE', #14, #247, #147 ) ;
#189 = CARTESIAN_POINT ( 'NONE',  ( -0.3750000000000000555, 1.205361022782828035E-17, -0.09842519685039370636 ) ) ;
#190 = APPROVAL ( #64, 'UNSPECIFIED' ) ;
#191 = CARTESIAN_POINT ( 'NONE',  ( 0.3750000000000000555, 1.205361022782828035E-17, -0.09842519685039370636 ) ) ;
#192 = CIRCLE ( 'NONE', #122, 0.09842519685039370636 ) ;
#193 = PERSON_AND_ORGANIZATION_ROLE ( 'design_owner' ) ;
#194 = ORIENTED_EDGE ( 'NONE', *, *, #228, .F. ) ;
#195 = CALENDAR_DATE ( 2022, 27, 4 ) ;
#196 = CC_DESIGN_APPROVAL ( #52, ( #201 ) ) ;
#197 = DATE_AND_TIME ( #179, #225 ) ;
#198 = COORDINATED_UNIVERSAL_TIME_OFFSET ( 6, 0, .BEHIND. ) ;
#199 = VERTEX_POINT ( 'NONE', #191 ) ;
#200 = VECTOR ( 'NONE', #205, 39.37007874015748143 ) ;
#201 = SECURITY_CLASSIFICATION ( '', '', #238 ) ;
#202 = EDGE_CURVE ( 'NONE', #121, #183, #210, .T. ) ;
#203 = DIRECTION ( 'NONE',  ( -1.000000000000000000, -0.000000000000000000, -0.000000000000000000 ) ) ;
#204 = CARTESIAN_POINT ( 'NONE',  ( 0.3750000000000000555, 0.000000000000000000, 0.1875000000000000278 ) ) ;
#205 = DIRECTION ( 'NONE',  ( -1.000000000000000000, -0.000000000000000000, -0.000000000000000000 ) ) ;
#206 = ORIENTED_EDGE ( 'NONE', *, *, #170, .T. ) ;
#207 = ORIENTED_EDGE ( 'NONE', *, *, #102, .T. ) ;
#208 = CARTESIAN_POINT ( 'NONE',  ( -0.3750000000000000555, 0.000000000000000000, 0.000000000000000000 ) ) ;
#209 = ADVANCED_FACE ( 'NONE', ( #36 ), #37, .T. ) ;
#210 = CIRCLE ( 'NONE', #98, 0.09842519685039370636 ) ;
#211 = CARTESIAN_POINT ( 'NONE',  ( -0.3750000000000000555, 0.000000000000000000, 0.09842519685039370636 ) ) ;
#212 = CIRCLE ( 'NONE', #223, 0.1875000000000000278 ) ;
#213 = CARTESIAN_POINT ( 'NONE',  ( -0.3750000000000000555, 0.000000000000000000, 0.000000000000000000 ) ) ;
#214 = APPROVAL ( #84, 'UNSPECIFIED' ) ;
#215 = PERSON_AND_ORGANIZATION_ROLE ( 'creator' ) ;
#216 = COORDINATED_UNIVERSAL_TIME_OFFSET ( 6, 0, .BEHIND. ) ;
#217 = PRODUCT ( 'REV-21-2089', 'REV-21-2089', '', ( #177 ) ) ;
#218 = EDGE_CURVE ( 'NONE', #183, #121, #230, .T. ) ;
#219 = CIRCLE ( 'NONE', #188, 0.1875000000000000278 ) ;
#220 = APPROVAL_ROLE ( '' ) ;
#221 = PERSON_AND_ORGANIZATION ( #123, #40 ) ;
#222 = APPROVAL_DATE_TIME ( #44, #214 ) ;
#223 = AXIS2_PLACEMENT_3D ( 'NONE', #73, #150, #237 ) ;
#224 = ORIENTED_EDGE ( 'NONE', *, *, #250, .T. ) ;
#225 = LOCAL_TIME ( 14, 42, 26.00000000000000000, #22 ) ;
#226 = EDGE_LOOP ( 'NONE', ( #50, #231 ) ) ;
#227 = ORIENTED_EDGE ( 'NONE', *, *, #202, .F. ) ;
#228 = EDGE_CURVE ( 'NONE', #240, #65, #212, .T. ) ;
#229 = ORIENTED_EDGE ( 'NONE', *, *, #218, .F. ) ;
#230 = CIRCLE ( 'NONE', #70, 0.09842519685039370636 ) ;
#231 = ORIENTED_EDGE ( 'NONE', *, *, #161, .T. ) ;
#232 = DESIGN_CONTEXT ( 'detailed design', #101, 'design' ) ;
#233 = DIRECTION ( 'NONE',  ( 0.000000000000000000, 0.000000000000000000, 1.000000000000000000 ) ) ;
#234 = CYLINDRICAL_SURFACE ( 'NONE', #24, 0.09842519685039370636 ) ;
#235 = CC_DESIGN_SECURITY_CLASSIFICATION ( #201, ( #71 ) ) ;
#236 = CARTESIAN_POINT ( 'NONE',  ( -0.3750000000000000555, 0.000000000000000000, 0.1875000000000000278 ) ) ;
#237 = DIRECTION ( 'NONE',  ( 0.000000000000000000, 0.000000000000000000, 1.000000000000000000 ) ) ;
#238 = SECURITY_CLASSIFICATION_LEVEL ( 'unclassified' ) ;
#239 = APPLICATION_PROTOCOL_DEFINITION ( 'international standard', 'config_control_design', 1994, #130 ) ;
#240 = VERTEX_POINT ( 'NONE', #236 ) ;
#241 = ORIENTED_EDGE ( 'NONE', *, *, #161, .F. ) ;
#242 = LOCAL_TIME ( 14, 42, 26.00000000000000000, #120 ) ;
#243 = CARTESIAN_POINT ( 'NONE',  ( -0.3750000000000000555, 0.1875000000000000278, 0.000000000000000000 ) ) ;
#244 = CC_DESIGN_PERSON_AND_ORGANIZATION_ASSIGNMENT ( #42, #193, ( #217 ) ) ;
#245 = ORIENTED_EDGE ( 'NONE', *, *, #81, .T. ) ;
#246 = CC_DESIGN_PERSON_AND_ORGANIZATION_ASSIGNMENT ( #78, #119, ( #201 ) ) ;
#247 = DIRECTION ( 'NONE',  ( -1.000000000000000000, -0.000000000000000000, -0.000000000000000000 ) ) ;
#248 = VECTOR ( 'NONE', #134, 39.37007874015748143 ) ;
#249 = CC_DESIGN_APPROVAL ( #214, ( #71 ) ) ;
#250 = EDGE_CURVE ( 'NONE', #178, #183, #133, .T. ) ;
#251 = DIRECTION ( 'NONE',  ( -1.000000000000000000, -0.000000000000000000, -0.000000000000000000 ) ) ;
#252 = CARTESIAN_POINT ( 'NONE',  ( 0.3750000000000000555, 0.1875000000000000278, 0.000000000000000000 ) ) ;
ENDSEC;
END-ISO-10303-21;
