ISO-10303-21;
HEADER;
FILE_DESCRIPTION (( 'STEP AP203' ),
    '1' );
FILE_NAME ('REV-21-2090.STEP',
    '2022-04-27T19:42:43',
    ( '' ),
    ( '' ),
    'SwSTEP 2.0',
    'SolidWorks 2022',
    '' );
FILE_SCHEMA (( 'CONFIG_CONTROL_DESIGN' ));
ENDSEC;

DATA;
#1 = UNCERTAINTY_MEASURE_WITH_UNIT (LENGTH_MEASURE( 1.000000000000000082E-05 ), #145, 'distance_accuracy_value', 'NONE');
#2 = CIRCLE ( 'NONE', #39, 0.09842519685039370636 ) ;
#3 =( NAMED_UNIT ( * ) SI_UNIT ( $, .STERADIAN. ) SOLID_ANGLE_UNIT ( ) );
#4 = EDGE_LOOP ( 'NONE', ( #71, #33 ) ) ;
#5 = CALENDAR_DATE ( 2022, 27, 4 ) ;
#6 = APPLICATION_PROTOCOL_DEFINITION ( 'international standard', 'config_control_design', 1994, #120 ) ;
#7 = DIRECTION ( 'NONE',  ( 1.000000000000000000, 0.000000000000000000, 0.000000000000000000 ) ) ;
#8 = LOCAL_TIME ( 14, 42, 43.00000000000000000, #30 ) ;
#9 = DIMENSIONAL_EXPONENTS ( 1.000000000000000000, 0.000000000000000000, 0.000000000000000000, 0.000000000000000000, 0.000000000000000000, 0.000000000000000000, 0.000000000000000000 ) ;
#10 = CARTESIAN_POINT ( 'NONE',  ( 0.5000000000000000000, 0.000000000000000000, 0.000000000000000000 ) ) ;
#11 = DIRECTION ( 'NONE',  ( 0.000000000000000000, 0.000000000000000000, 1.000000000000000000 ) ) ;
#12 = DIRECTION ( 'NONE',  ( -1.000000000000000000, -0.000000000000000000, -0.000000000000000000 ) ) ;
#13 = ORIENTED_EDGE ( 'NONE', *, *, #56, .T. ) ;
#14 = CARTESIAN_POINT ( 'NONE',  ( 0.5000000000000000000, 0.000000000000000000, 0.000000000000000000 ) ) ;
#15 = PERSON_AND_ORGANIZATION ( #31, #181 ) ;
#16 = LINE ( 'NONE', #136, #69 ) ;
#17 = PLANE ( 'NONE',  #70 ) ;
#18 = ADVANCED_FACE ( 'NONE', ( #184, #180 ), #54, .F. ) ;
#19 = CC_DESIGN_PERSON_AND_ORGANIZATION_ASSIGNMENT ( #129, #27, ( #97 ) ) ;
#20 = VERTEX_POINT ( 'NONE', #208 ) ;
#21 = FACE_OUTER_BOUND ( 'NONE', #113, .T. ) ;
#22 = CYLINDRICAL_SURFACE ( 'NONE', #166, 0.1875000000000000278 ) ;
#23 = CARTESIAN_POINT ( 'NONE',  ( 0.5000000000000000000, 2.296212748401287726E-17, -0.1875000000000000278 ) ) ;
#24 =( LENGTH_UNIT ( ) NAMED_UNIT ( * ) SI_UNIT ( $, .METRE. ) );
#25 = AXIS2_PLACEMENT_3D ( 'NONE', #131, #94, #29 ) ;
#26 = DIRECTION ( 'NONE',  ( -1.000000000000000000, -0.000000000000000000, -0.000000000000000000 ) ) ;
#27 = PERSON_AND_ORGANIZATION_ROLE ( 'classification_officer' ) ;
#28 = EDGE_CURVE ( 'NONE', #88, #111, #16, .T. ) ;
#29 = DIRECTION ( 'NONE',  ( 0.000000000000000000, 0.000000000000000000, 1.000000000000000000 ) ) ;
#30 = COORDINATED_UNIVERSAL_TIME_OFFSET ( 6, 0, .BEHIND. ) ;
#31 = PERSON ( 'UNSPECIFIED', 'UNSPECIFIED', 'UNSPECIFIED', ('UNSPECIFIED'), ('UNSPECIFIED'), ('UNSPECIFIED') ) ;
#32 = CC_DESIGN_APPROVAL ( #112, ( #58 ) ) ;
#33 = ORIENTED_EDGE ( 'NONE', *, *, #63, .F. ) ;
#34 = DATE_AND_TIME ( #205, #8 ) ;
#35 = EDGE_LOOP ( 'NONE', ( #75, #204, #175, #105 ) ) ;
#36 = APPROVAL_DATE_TIME ( #34, #159 ) ;
#37 = DIRECTION ( 'NONE',  ( -1.000000000000000000, -0.000000000000000000, -0.000000000000000000 ) ) ;
#38 = AXIS2_PLACEMENT_3D ( 'NONE', #164, #183, #127 ) ;
#39 = AXIS2_PLACEMENT_3D ( 'NONE', #116, #209, #252 ) ;
#40 = EDGE_CURVE ( 'NONE', #223, #169, #103, .T. ) ;
#41 = EDGE_CURVE ( 'NONE', #20, #65, #138, .T. ) ;
#42 = DIRECTION ( 'NONE',  ( 0.000000000000000000, 0.000000000000000000, 1.000000000000000000 ) ) ;
#43 = DIRECTION ( 'NONE',  ( 0.000000000000000000, 0.000000000000000000, 1.000000000000000000 ) ) ;
#44 = ORIENTED_EDGE ( 'NONE', *, *, #101, .F. ) ;
#45 = APPROVAL_DATE_TIME ( #80, #246 ) ;
#46 = AXIS2_PLACEMENT_3D ( 'NONE', #178, #176, #7 ) ;
#47 = ORIENTED_EDGE ( 'NONE', *, *, #28, .T. ) ;
#48 = FACE_OUTER_BOUND ( 'NONE', #35, .T. ) ;
#49 = PERSON_AND_ORGANIZATION ( #31, #181 ) ;
#50 = DIRECTION ( 'NONE',  ( 0.000000000000000000, 0.000000000000000000, 1.000000000000000000 ) ) ;
#51 = DATE_TIME_ROLE ( 'classification_date' ) ;
#52 = CIRCLE ( 'NONE', #142, 0.1875000000000000278 ) ;
#53 = DIRECTION ( 'NONE',  ( -1.000000000000000000, -0.000000000000000000, -0.000000000000000000 ) ) ;
#54 = PLANE ( 'NONE',  #38 ) ;
#55 = CYLINDRICAL_SURFACE ( 'NONE', #210, 0.09842519685039370636 ) ;
#56 = EDGE_CURVE ( 'NONE', #111, #128, #155, .T. ) ;
#57 = PRODUCT ( 'REV-21-2090', 'REV-21-2090', '', ( #84 ) ) ;
#58 = PRODUCT_DEFINITION_FORMATION_WITH_SPECIFIED_SOURCE ( 'ANY', '', #57, .NOT_KNOWN. ) ;
#59 = PERSON_AND_ORGANIZATION ( #31, #181 ) ;
#60 = CARTESIAN_POINT ( 'NONE',  ( -0.5000000000000001110, 0.000000000000000000, 0.000000000000000000 ) ) ;
#61 = ORIENTED_EDGE ( 'NONE', *, *, #83, .T. ) ;
#62 = CARTESIAN_POINT ( 'NONE',  ( -0.5000000000000000000, 0.000000000000000000, 0.000000000000000000 ) ) ;
#63 = EDGE_CURVE ( 'NONE', #128, #111, #79, .T. ) ;
#64 = CARTESIAN_POINT ( 'NONE',  ( 0.5000000000000000000, 0.000000000000000000, 0.1875000000000000278 ) ) ;
#65 = VERTEX_POINT ( 'NONE', #168 ) ;
#66 = LENGTH_MEASURE_WITH_UNIT ( LENGTH_MEASURE( 0.02539999999999999897 ), #24 );
#67 = EDGE_CURVE ( 'NONE', #169, #223, #222, .T. ) ;
#68 = CARTESIAN_POINT ( 'NONE',  ( 0.5000000000000000000, 0.000000000000000000, 0.09842519685039370636 ) ) ;
#69 = VECTOR ( 'NONE', #157, 39.37007874015748143 ) ;
#70 = AXIS2_PLACEMENT_3D ( 'NONE', #98, #233, #137 ) ;
#71 = ORIENTED_EDGE ( 'NONE', *, *, #56, .F. ) ;
#72 = LINE ( 'NONE', #245, #86 ) ;
#73 = CARTESIAN_POINT ( 'NONE',  ( -0.5000000000000000000, 0.000000000000000000, 0.000000000000000000 ) ) ;
#74 = CC_DESIGN_APPROVAL ( #246, ( #220 ) ) ;
#75 = ORIENTED_EDGE ( 'NONE', *, *, #236, .F. ) ;
#76 = FACE_BOUND ( 'NONE', #4, .T. ) ;
#77 = CC_DESIGN_DATE_AND_TIME_ASSIGNMENT ( #82, #237, ( #220 ) ) ;
#78 = MANIFOLD_SOLID_BREP ( 'Revolve1', #174 ) ;
#79 = CIRCLE ( 'NONE', #25, 0.09842519685039370636 ) ;
#80 = DATE_AND_TIME ( #163, #85 ) ;
#81 = ORIENTED_EDGE ( 'NONE', *, *, #130, .T. ) ;
#82 = DATE_AND_TIME ( #5, #171 ) ;
#83 = EDGE_CURVE ( 'NONE', #182, #128, #72, .T. ) ;
#84 = MECHANICAL_CONTEXT ( 'NONE', #120, 'mechanical' ) ;
#85 = LOCAL_TIME ( 14, 42, 43.00000000000000000, #235 ) ;
#86 = VECTOR ( 'NONE', #12, 39.37007874015748143 ) ;
#87 = DIRECTION ( 'NONE',  ( 0.000000000000000000, 0.000000000000000000, 1.000000000000000000 ) ) ;
#88 = VERTEX_POINT ( 'NONE', #68 ) ;
#89 = APPROVAL_ROLE ( '' ) ;
#90 = DIRECTION ( 'NONE',  ( -1.000000000000000000, -0.000000000000000000, -0.000000000000000000 ) ) ;
#91 = FACE_OUTER_BOUND ( 'NONE', #96, .T. ) ;
#92 = LOCAL_TIME ( 14, 42, 43.00000000000000000, #201 ) ;
#93 = ORIENTED_EDGE ( 'NONE', *, *, #251, .F. ) ;
#94 = DIRECTION ( 'NONE',  ( -1.000000000000000000, -0.000000000000000000, -0.000000000000000000 ) ) ;
#95 = PERSON_AND_ORGANIZATION_ROLE ( 'design_supplier' ) ;
#96 = EDGE_LOOP ( 'NONE', ( #93, #61, #147, #114 ) ) ;
#97 = SECURITY_CLASSIFICATION ( '', '', #199 ) ;
#98 = CARTESIAN_POINT ( 'NONE',  ( -0.5000000000000000000, 0.1875000000000000278, 0.000000000000000000 ) ) ;
#99 = ADVANCED_FACE ( 'NONE', ( #48 ), #248, .T. ) ;
#100 = DESIGN_CONTEXT ( 'detailed design', #146, 'design' ) ;
#101 = EDGE_CURVE ( 'NONE', #169, #65, #154, .T. ) ;
#102 = CARTESIAN_POINT ( 'NONE',  ( 0.5000000000000000000, 1.205361022782828035E-17, -0.09842519685039370636 ) ) ;
#103 = CIRCLE ( 'NONE', #242, 0.1875000000000000278 ) ;
#104 = AXIS2_PLACEMENT_3D ( 'NONE', #10, #143, #43 ) ;
#105 = ORIENTED_EDGE ( 'NONE', *, *, #41, .F. ) ;
#106 = COORDINATED_UNIVERSAL_TIME_OFFSET ( 6, 0, .BEHIND. ) ;
#107 =( NAMED_UNIT ( * ) PLANE_ANGLE_UNIT ( ) SI_UNIT ( $, .RADIAN. ) );
#108 = VECTOR ( 'NONE', #190, 39.37007874015748143 ) ;
#109 = DIRECTION ( 'NONE',  ( 0.000000000000000000, 0.000000000000000000, 1.000000000000000000 ) ) ;
#110 = PERSON_AND_ORGANIZATION_ROLE ( 'creator' ) ;
#111 = VERTEX_POINT ( 'NONE', #250 ) ;
#112 = APPROVAL ( #165, 'UNSPECIFIED' ) ;
#113 = EDGE_LOOP ( 'NONE', ( #219, #192, #162, #44 ) ) ;
#114 = ORIENTED_EDGE ( 'NONE', *, *, #28, .F. ) ;
#115 = CALENDAR_DATE ( 2022, 27, 4 ) ;
#116 = CARTESIAN_POINT ( 'NONE',  ( 0.5000000000000000000, 0.000000000000000000, 0.000000000000000000 ) ) ;
#117 = AXIS2_PLACEMENT_3D ( 'NONE', #240, #90, #224 ) ;
#118 = EDGE_LOOP ( 'NONE', ( #226, #214, #47, #13 ) ) ;
#119 = ADVANCED_FACE ( 'NONE', ( #91 ), #167, .F. ) ;
#120 = APPLICATION_CONTEXT ( 'configuration controlled 3d designs of mechanical parts and assemblies' ) ;
#121 = DIRECTION ( 'NONE',  ( -1.000000000000000000, -0.000000000000000000, -0.000000000000000000 ) ) ;
#122 = CC_DESIGN_PERSON_AND_ORGANIZATION_ASSIGNMENT ( #225, #95, ( #58 ) ) ;
#123 = ORIENTED_EDGE ( 'NONE', *, *, #251, .T. ) ;
#124 = PERSON_AND_ORGANIZATION ( #31, #181 ) ;
#125 = ORIENTED_EDGE ( 'NONE', *, *, #41, .T. ) ;
#126 = CARTESIAN_POINT ( 'NONE',  ( -0.5000000000000000000, 0.000000000000000000, 0.000000000000000000 ) ) ;
#127 = DIRECTION ( 'NONE',  ( -0.000000000000000000, 0.000000000000000000, 1.000000000000000000 ) ) ;
#128 = VERTEX_POINT ( 'NONE', #172 ) ;
#129 = PERSON_AND_ORGANIZATION ( #31, #181 ) ;
#130 = EDGE_CURVE ( 'NONE', #88, #182, #2, .T. ) ;
#131 = CARTESIAN_POINT ( 'NONE',  ( -0.5000000000000000000, 0.000000000000000000, 0.000000000000000000 ) ) ;
#132 = APPROVAL_ROLE ( '' ) ;
#133 = DIRECTION ( 'NONE',  ( -1.000000000000000000, -0.000000000000000000, -0.000000000000000000 ) ) ;
#134 = COORDINATED_UNIVERSAL_TIME_OFFSET ( 6, 0, .BEHIND. ) ;
#135 = ADVANCED_FACE ( 'NONE', ( #76, #186 ), #17, .F. ) ;
#136 = CARTESIAN_POINT ( 'NONE',  ( -0.5000000000000000000, 0.000000000000000000, 0.09842519685039370636 ) ) ;
#137 = DIRECTION ( 'NONE',  ( 0.000000000000000000, 0.000000000000000000, -1.000000000000000000 ) ) ;
#138 = CIRCLE ( 'NONE', #139, 0.1875000000000000278 ) ;
#139 = AXIS2_PLACEMENT_3D ( 'NONE', #200, #37, #50 ) ;
#140 = ADVANCED_FACE ( 'NONE', ( #158 ), #55, .F. ) ;
#141 = DIRECTION ( 'NONE',  ( -1.000000000000000000, -0.000000000000000000, -0.000000000000000000 ) ) ;
#142 = AXIS2_PLACEMENT_3D ( 'NONE', #60, #216, #87 ) ;
#143 = DIRECTION ( 'NONE',  ( -1.000000000000000000, -0.000000000000000000, -0.000000000000000000 ) ) ;
#144 = ORIENTED_EDGE ( 'NONE', *, *, #67, .F. ) ;
#145 =( CONVERSION_BASED_UNIT ( 'INCH', #66 ) LENGTH_UNIT ( ) NAMED_UNIT ( #9 ) );
#146 = APPLICATION_CONTEXT ( 'configuration controlled 3d designs of mechanical parts and assemblies' ) ;
#147 = ORIENTED_EDGE ( 'NONE', *, *, #63, .T. ) ;
#148 = CARTESIAN_POINT ( 'NONE',  ( -0.5000000000000000000, 2.296212748401287726E-17, -0.1875000000000000278 ) ) ;
#149 = AXIS2_PLACEMENT_3D ( 'NONE', #231, #26, #151 ) ;
#150 = CARTESIAN_POINT ( 'NONE',  ( -0.5000000000000000000, 0.000000000000000000, 0.1875000000000000278 ) ) ;
#151 = DIRECTION ( 'NONE',  ( 0.000000000000000000, 0.000000000000000000, 1.000000000000000000 ) ) ;
#152 = CC_DESIGN_PERSON_AND_ORGANIZATION_ASSIGNMENT ( #59, #215, ( #220 ) ) ;
#153 = EDGE_LOOP ( 'NONE', ( #238, #125 ) ) ;
#154 = LINE ( 'NONE', #150, #228 ) ;
#155 = CIRCLE ( 'NONE', #149, 0.09842519685039370636 ) ;
#156 = APPROVAL_DATE_TIME ( #185, #112 ) ;
#157 = DIRECTION ( 'NONE',  ( -1.000000000000000000, -0.000000000000000000, -0.000000000000000000 ) ) ;
#158 = FACE_OUTER_BOUND ( 'NONE', #118, .T. ) ;
#159 = APPROVAL ( #230, 'UNSPECIFIED' ) ;
#160 = CC_DESIGN_PERSON_AND_ORGANIZATION_ASSIGNMENT ( #15, #110, ( #58 ) ) ;
#161 = PERSON_AND_ORGANIZATION ( #31, #181 ) ;
#162 = ORIENTED_EDGE ( 'NONE', *, *, #217, .F. ) ;
#163 = CALENDAR_DATE ( 2022, 27, 4 ) ;
#164 = CARTESIAN_POINT ( 'NONE',  ( 0.5000000000000000000, 0.1875000000000000278, 0.000000000000000000 ) ) ;
#165 = APPROVAL_STATUS ( 'not_yet_approved' ) ;
#166 = AXIS2_PLACEMENT_3D ( 'NONE', #62, #121, #197 ) ;
#167 = CYLINDRICAL_SURFACE ( 'NONE', #218, 0.09842519685039370636 ) ;
#168 = CARTESIAN_POINT ( 'NONE',  ( -0.5000000000000001110, 0.000000000000000000, 0.1875000000000000278 ) ) ;
#169 = VERTEX_POINT ( 'NONE', #64 ) ;
#170 = DIRECTION ( 'NONE',  ( -1.000000000000000000, -0.000000000000000000, -0.000000000000000000 ) ) ;
#171 = LOCAL_TIME ( 14, 42, 43.00000000000000000, #106 ) ;
#172 = CARTESIAN_POINT ( 'NONE',  ( -0.5000000000000000000, 1.205361022782828035E-17, -0.09842519685039370636 ) ) ;
#173 = APPLICATION_PROTOCOL_DEFINITION ( 'international standard', 'config_control_design', 1994, #146 ) ;
#174 = CLOSED_SHELL ( 'NONE', ( #179, #119, #135, #140, #18, #99 ) ) ;
#175 = ORIENTED_EDGE ( 'NONE', *, *, #101, .T. ) ;
#176 = DIRECTION ( 'NONE',  ( 0.000000000000000000, 0.000000000000000000, 1.000000000000000000 ) ) ;
#177 = LINE ( 'NONE', #148, #108 ) ;
#178 = CARTESIAN_POINT ( 'NONE',  ( 0.000000000000000000, 0.000000000000000000, 0.000000000000000000 ) ) ;
#179 = ADVANCED_FACE ( 'NONE', ( #21 ), #22, .T. ) ;
#180 = FACE_BOUND ( 'NONE', #229, .T. ) ;
#181 = ORGANIZATION ( 'UNSPECIFIED', 'UNSPECIFIED', '' ) ;
#182 = VERTEX_POINT ( 'NONE', #102 ) ;
#183 = DIRECTION ( 'NONE',  ( -1.000000000000000000, 0.000000000000000000, -0.000000000000000000 ) ) ;
#184 = FACE_OUTER_BOUND ( 'NONE', #194, .T. ) ;
#185 = DATE_AND_TIME ( #115, #191 ) ;
#186 = FACE_OUTER_BOUND ( 'NONE', #153, .T. ) ;
#187 =( GEOMETRIC_REPRESENTATION_CONTEXT ( 3 ) GLOBAL_UNCERTAINTY_ASSIGNED_CONTEXT ( ( #1 ) ) GLOBAL_UNIT_ASSIGNED_CONTEXT ( ( #145, #107, #3 ) ) REPRESENTATION_CONTEXT ( 'NONE', 'WORKASPACE' ) );
#188 = CC_DESIGN_PERSON_AND_ORGANIZATION_ASSIGNMENT ( #161, #221, ( #57 ) ) ;
#189 = APPROVAL_PERSON_ORGANIZATION ( #207, #159, #132 ) ;
#190 = DIRECTION ( 'NONE',  ( -1.000000000000000000, -0.000000000000000000, -0.000000000000000000 ) ) ;
#191 = LOCAL_TIME ( 14, 42, 43.00000000000000000, #134 ) ;
#192 = ORIENTED_EDGE ( 'NONE', *, *, #236, .T. ) ;
#193 = CC_DESIGN_DATE_AND_TIME_ASSIGNMENT ( #227, #51, ( #97 ) ) ;
#194 = EDGE_LOOP ( 'NONE', ( #144, #239 ) ) ;
#195 = APPROVAL_STATUS ( 'not_yet_approved' ) ;
#196 = CC_DESIGN_SECURITY_CLASSIFICATION ( #97, ( #58 ) ) ;
#197 = DIRECTION ( 'NONE',  ( 0.000000000000000000, 0.000000000000000000, 1.000000000000000000 ) ) ;
#198 = DIRECTION ( 'NONE',  ( -1.000000000000000000, -0.000000000000000000, -0.000000000000000000 ) ) ;
#199 = SECURITY_CLASSIFICATION_LEVEL ( 'unclassified' ) ;
#200 = CARTESIAN_POINT ( 'NONE',  ( -0.5000000000000001110, 0.000000000000000000, 0.000000000000000000 ) ) ;
#201 = COORDINATED_UNIVERSAL_TIME_OFFSET ( 6, 0, .BEHIND. ) ;
#202 = PRODUCT_RELATED_PRODUCT_CATEGORY ( 'detail', '', ( #57 ) ) ;
#203 = CIRCLE ( 'NONE', #104, 0.09842519685039370636 ) ;
#204 = ORIENTED_EDGE ( 'NONE', *, *, #40, .T. ) ;
#205 = CALENDAR_DATE ( 2022, 27, 4 ) ;
#206 = DIRECTION ( 'NONE',  ( 0.000000000000000000, 0.000000000000000000, 1.000000000000000000 ) ) ;
#207 = PERSON_AND_ORGANIZATION ( #31, #181 ) ;
#208 = CARTESIAN_POINT ( 'NONE',  ( -0.5000000000000001110, 2.296212748401287726E-17, -0.1875000000000000278 ) ) ;
#209 = DIRECTION ( 'NONE',  ( -1.000000000000000000, -0.000000000000000000, -0.000000000000000000 ) ) ;
#210 = AXIS2_PLACEMENT_3D ( 'NONE', #126, #141, #42 ) ;
#211 = ADVANCED_BREP_SHAPE_REPRESENTATION ( 'REV-21-2090', ( #78, #46 ), #187 ) ;
#212 = PRODUCT_DEFINITION_SHAPE ( 'NONE', 'NONE',  #220 ) ;
#213 = CC_DESIGN_APPROVAL ( #159, ( #97 ) ) ;
#214 = ORIENTED_EDGE ( 'NONE', *, *, #130, .F. ) ;
#215 = PERSON_AND_ORGANIZATION_ROLE ( 'creator' ) ;
#216 = DIRECTION ( 'NONE',  ( -1.000000000000000000, -0.000000000000000000, -0.000000000000000000 ) ) ;
#217 = EDGE_CURVE ( 'NONE', #65, #20, #52, .T. ) ;
#218 = AXIS2_PLACEMENT_3D ( 'NONE', #244, #133, #206 ) ;
#219 = ORIENTED_EDGE ( 'NONE', *, *, #67, .T. ) ;
#220 = PRODUCT_DEFINITION ( 'UNKNOWN', '', #58, #100 ) ;
#221 = PERSON_AND_ORGANIZATION_ROLE ( 'design_owner' ) ;
#222 = CIRCLE ( 'NONE', #117, 0.1875000000000000278 ) ;
#223 = VERTEX_POINT ( 'NONE', #23 ) ;
#224 = DIRECTION ( 'NONE',  ( 0.000000000000000000, 0.000000000000000000, 1.000000000000000000 ) ) ;
#225 = PERSON_AND_ORGANIZATION ( #31, #181 ) ;
#226 = ORIENTED_EDGE ( 'NONE', *, *, #83, .F. ) ;
#227 = DATE_AND_TIME ( #232, #92 ) ;
#228 = VECTOR ( 'NONE', #53, 39.37007874015748143 ) ;
#229 = EDGE_LOOP ( 'NONE', ( #81, #123 ) ) ;
#230 = APPROVAL_STATUS ( 'not_yet_approved' ) ;
#231 = CARTESIAN_POINT ( 'NONE',  ( -0.5000000000000000000, 0.000000000000000000, 0.000000000000000000 ) ) ;
#232 = CALENDAR_DATE ( 2022, 27, 4 ) ;
#233 = DIRECTION ( 'NONE',  ( 1.000000000000000000, 0.000000000000000000, 0.000000000000000000 ) ) ;
#234 = AXIS2_PLACEMENT_3D ( 'NONE', #73, #170, #109 ) ;
#235 = COORDINATED_UNIVERSAL_TIME_OFFSET ( 6, 0, .BEHIND. ) ;
#236 = EDGE_CURVE ( 'NONE', #223, #20, #177, .T. ) ;
#237 = DATE_TIME_ROLE ( 'creation_date' ) ;
#238 = ORIENTED_EDGE ( 'NONE', *, *, #217, .T. ) ;
#239 = ORIENTED_EDGE ( 'NONE', *, *, #40, .F. ) ;
#240 = CARTESIAN_POINT ( 'NONE',  ( 0.5000000000000000000, 0.000000000000000000, 0.000000000000000000 ) ) ;
#241 = SHAPE_DEFINITION_REPRESENTATION ( #212, #211 ) ;
#242 = AXIS2_PLACEMENT_3D ( 'NONE', #14, #198, #11 ) ;
#243 = APPROVAL_PERSON_ORGANIZATION ( #49, #112, #247 ) ;
#244 = CARTESIAN_POINT ( 'NONE',  ( -0.5000000000000000000, 0.000000000000000000, 0.000000000000000000 ) ) ;
#245 = CARTESIAN_POINT ( 'NONE',  ( -0.5000000000000000000, 1.205361022782828035E-17, -0.09842519685039370636 ) ) ;
#246 = APPROVAL ( #195, 'UNSPECIFIED' ) ;
#247 = APPROVAL_ROLE ( '' ) ;
#248 = CYLINDRICAL_SURFACE ( 'NONE', #234, 0.1875000000000000278 ) ;
#249 = APPROVAL_PERSON_ORGANIZATION ( #124, #246, #89 ) ;
#250 = CARTESIAN_POINT ( 'NONE',  ( -0.5000000000000000000, 0.000000000000000000, 0.09842519685039370636 ) ) ;
#251 = EDGE_CURVE ( 'NONE', #182, #88, #203, .T. ) ;
#252 = DIRECTION ( 'NONE',  ( 0.000000000000000000, 0.000000000000000000, 1.000000000000000000 ) ) ;
ENDSEC;
END-ISO-10303-21;
