ISO-10303-21;
HEADER;
FILE_DESCRIPTION (( 'STEP AP203' ),
    '1' );
FILE_NAME ('REV-21-2095.STEP',
    '2022-04-27T19:43:03',
    ( '' ),
    ( '' ),
    'SwSTEP 2.0',
    'SolidWorks 2022',
    '' );
FILE_SCHEMA (( 'CONFIG_CONTROL_DESIGN' ));
ENDSEC;

DATA;
#1 = EDGE_LOOP ( 'NONE', ( #83, #42 ) ) ;
#2 = CARTESIAN_POINT ( 'NONE',  ( 0.5625000000000000000, 1.205361022782828035E-17, -0.09842519685039370636 ) ) ;
#3 = CARTESIAN_POINT ( 'NONE',  ( 0.5624999999999998890, 0.000000000000000000, 0.000000000000000000 ) ) ;
#4 = DIRECTION ( 'NONE',  ( -1.000000000000000000, -0.000000000000000000, -0.000000000000000000 ) ) ;
#5 = DIRECTION ( 'NONE',  ( -1.000000000000000000, -0.000000000000000000, -0.000000000000000000 ) ) ;
#6 = FACE_OUTER_BOUND ( 'NONE', #77, .T. ) ;
#7 = CALENDAR_DATE ( 2022, 27, 4 ) ;
#8 = ADVANCED_FACE ( 'NONE', ( #212, #57 ), #39, .F. ) ;
#9 = AXIS2_PLACEMENT_3D ( 'NONE', #3, #88, #64 ) ;
#10 = DIRECTION ( 'NONE',  ( 0.000000000000000000, 0.000000000000000000, 1.000000000000000000 ) ) ;
#11 = COORDINATED_UNIVERSAL_TIME_OFFSET ( 6, 0, .BEHIND. ) ;
#12 = COORDINATED_UNIVERSAL_TIME_OFFSET ( 6, 0, .BEHIND. ) ;
#13 = ORIENTED_EDGE ( 'NONE', *, *, #156, .F. ) ;
#14 = ADVANCED_BREP_SHAPE_REPRESENTATION ( 'REV-21-2095', ( #84, #181 ), #137 ) ;
#15 = ORIENTED_EDGE ( 'NONE', *, *, #108, .T. ) ;
#16 = ADVANCED_FACE ( 'NONE', ( #135 ), #116, .T. ) ;
#17 = VERTEX_POINT ( 'NONE', #233 ) ;
#18 = AXIS2_PLACEMENT_3D ( 'NONE', #161, #68, #240 ) ;
#19 = CARTESIAN_POINT ( 'NONE',  ( -0.5625000000000000000, 0.000000000000000000, 0.000000000000000000 ) ) ;
#20 = DIRECTION ( 'NONE',  ( -1.000000000000000000, -0.000000000000000000, -0.000000000000000000 ) ) ;
#21 = APPLICATION_CONTEXT ( 'configuration controlled 3d designs of mechanical parts and assemblies' ) ;
#22 = ADVANCED_FACE ( 'NONE', ( #40 ), #118, .F. ) ;
#23 = LENGTH_MEASURE_WITH_UNIT ( LENGTH_MEASURE( 0.02539999999999999897 ), #70 );
#24 = APPROVAL_PERSON_ORGANIZATION ( #226, #134, #166 ) ;
#25 = CARTESIAN_POINT ( 'NONE',  ( 0.5624999999999998890, 0.000000000000000000, 0.1875000000000000278 ) ) ;
#26 = DIRECTION ( 'NONE',  ( 0.000000000000000000, 0.000000000000000000, 1.000000000000000000 ) ) ;
#27 = CARTESIAN_POINT ( 'NONE',  ( -0.5625000000000000000, 0.000000000000000000, 0.000000000000000000 ) ) ;
#28 = FACE_BOUND ( 'NONE', #1, .T. ) ;
#29 = APPROVAL_PERSON_ORGANIZATION ( #185, #192, #31 ) ;
#30 = SHAPE_DEFINITION_REPRESENTATION ( #122, #14 ) ;
#31 = APPROVAL_ROLE ( '' ) ;
#32 = VECTOR ( 'NONE', #144, 39.37007874015748143 ) ;
#33 = PERSON_AND_ORGANIZATION ( #187, #41 ) ;
#34 = PRODUCT_DEFINITION ( 'UNKNOWN', '', #211, #58 ) ;
#35 = APPROVAL_STATUS ( 'not_yet_approved' ) ;
#36 = CC_DESIGN_PERSON_AND_ORGANIZATION_ASSIGNMENT ( #33, #110, ( #61 ) ) ;
#37 = CIRCLE ( 'NONE', #172, 0.09842519685039370636 ) ;
#38 = VERTEX_POINT ( 'NONE', #175 ) ;
#39 = PLANE ( 'NONE',  #112 ) ;
#40 = FACE_OUTER_BOUND ( 'NONE', #190, .T. ) ;
#41 = ORGANIZATION ( 'UNSPECIFIED', 'UNSPECIFIED', '' ) ;
#42 = ORIENTED_EDGE ( 'NONE', *, *, #170, .T. ) ;
#43 = CARTESIAN_POINT ( 'NONE',  ( -0.5625000000000000000, 0.000000000000000000, 0.000000000000000000 ) ) ;
#44 = PRODUCT ( 'REV-21-2095', 'REV-21-2095', '', ( #92 ) ) ;
#45 = CARTESIAN_POINT ( 'NONE',  ( -0.5624999999999998890, 0.000000000000000000, 0.000000000000000000 ) ) ;
#46 = CIRCLE ( 'NONE', #9, 0.1875000000000000278 ) ;
#47 = DIRECTION ( 'NONE',  ( 0.000000000000000000, 0.000000000000000000, 1.000000000000000000 ) ) ;
#48 = CARTESIAN_POINT ( 'NONE',  ( -0.5625000000000000000, 0.000000000000000000, 0.1875000000000000278 ) ) ;
#49 = CARTESIAN_POINT ( 'NONE',  ( 0.5624999999999998890, 2.296212748401287726E-17, -0.1875000000000000278 ) ) ;
#50 = PERSON_AND_ORGANIZATION ( #187, #41 ) ;
#51 =( NAMED_UNIT ( * ) PLANE_ANGLE_UNIT ( ) SI_UNIT ( $, .RADIAN. ) );
#52 = VECTOR ( 'NONE', #238, 39.37007874015748143 ) ;
#53 = DATE_TIME_ROLE ( 'classification_date' ) ;
#54 = ORIENTED_EDGE ( 'NONE', *, *, #59, .T. ) ;
#55 = LOCAL_TIME ( 14, 43, 3.000000000000000000, #76 ) ;
#56 = ORIENTED_EDGE ( 'NONE', *, *, #217, .F. ) ;
#57 = FACE_OUTER_BOUND ( 'NONE', #189, .T. ) ;
#58 = DESIGN_CONTEXT ( 'detailed design', #21, 'design' ) ;
#59 = EDGE_CURVE ( 'NONE', #17, #150, #202, .T. ) ;
#60 = ORIENTED_EDGE ( 'NONE', *, *, #170, .F. ) ;
#61 = SECURITY_CLASSIFICATION ( '', '', #148 ) ;
#62 = CC_DESIGN_DATE_AND_TIME_ASSIGNMENT ( #205, #53, ( #61 ) ) ;
#63 = ORIENTED_EDGE ( 'NONE', *, *, #59, .F. ) ;
#64 = DIRECTION ( 'NONE',  ( 0.000000000000000000, 0.000000000000000000, 1.000000000000000000 ) ) ;
#65 = DIRECTION ( 'NONE',  ( 0.000000000000000000, 0.000000000000000000, 1.000000000000000000 ) ) ;
#66 = ADVANCED_FACE ( 'NONE', ( #195 ), #121, .T. ) ;
#67 = AXIS2_PLACEMENT_3D ( 'NONE', #19, #155, #210 ) ;
#68 = DIRECTION ( 'NONE',  ( -1.000000000000000000, 0.000000000000000000, -0.000000000000000000 ) ) ;
#69 = DIRECTION ( 'NONE',  ( 0.000000000000000000, 0.000000000000000000, 1.000000000000000000 ) ) ;
#70 =( LENGTH_UNIT ( ) NAMED_UNIT ( * ) SI_UNIT ( $, .METRE. ) );
#71 = DIMENSIONAL_EXPONENTS ( 1.000000000000000000, 0.000000000000000000, 0.000000000000000000, 0.000000000000000000, 0.000000000000000000, 0.000000000000000000, 0.000000000000000000 ) ;
#72 = COORDINATED_UNIVERSAL_TIME_OFFSET ( 6, 0, .BEHIND. ) ;
#73 = CC_DESIGN_PERSON_AND_ORGANIZATION_ASSIGNMENT ( #168, #93, ( #34 ) ) ;
#74 = DATE_AND_TIME ( #7, #113 ) ;
#75 = LOCAL_TIME ( 14, 43, 3.000000000000000000, #11 ) ;
#76 = COORDINATED_UNIVERSAL_TIME_OFFSET ( 6, 0, .BEHIND. ) ;
#77 = EDGE_LOOP ( 'NONE', ( #60, #132, #15, #78 ) ) ;
#78 = ORIENTED_EDGE ( 'NONE', *, *, #203, .F. ) ;
#79 = CC_DESIGN_PERSON_AND_ORGANIZATION_ASSIGNMENT ( #131, #204, ( #211 ) ) ;
#80 = AXIS2_PLACEMENT_3D ( 'NONE', #191, #20, #100 ) ;
#81 = VERTEX_POINT ( 'NONE', #196 ) ;
#82 = CARTESIAN_POINT ( 'NONE',  ( -0.5624999999999998890, 0.1875000000000000278, 0.000000000000000000 ) ) ;
#83 = ORIENTED_EDGE ( 'NONE', *, *, #197, .T. ) ;
#84 = MANIFOLD_SOLID_BREP ( 'Revolve1', #220 ) ;
#85 = DIRECTION ( 'NONE',  ( -1.000000000000000000, -0.000000000000000000, -0.000000000000000000 ) ) ;
#86 = CARTESIAN_POINT ( 'NONE',  ( -0.5625000000000000000, 0.000000000000000000, 0.000000000000000000 ) ) ;
#87 = CARTESIAN_POINT ( 'NONE',  ( -0.5624999999999998890, 0.000000000000000000, 0.000000000000000000 ) ) ;
#88 = DIRECTION ( 'NONE',  ( -1.000000000000000000, -0.000000000000000000, -0.000000000000000000 ) ) ;
#89 = DIRECTION ( 'NONE',  ( -1.000000000000000000, -0.000000000000000000, -0.000000000000000000 ) ) ;
#90 = PERSON_AND_ORGANIZATION_ROLE ( 'design_owner' ) ;
#91 = AXIS2_PLACEMENT_3D ( 'NONE', #86, #141, #101 ) ;
#92 = MECHANICAL_CONTEXT ( 'NONE', #114, 'mechanical' ) ;
#93 = PERSON_AND_ORGANIZATION_ROLE ( 'creator' ) ;
#94 = CALENDAR_DATE ( 2022, 27, 4 ) ;
#95 = APPROVAL_PERSON_ORGANIZATION ( #50, #239, #247 ) ;
#96 = ORIENTED_EDGE ( 'NONE', *, *, #153, .F. ) ;
#97 = ORIENTED_EDGE ( 'NONE', *, *, #203, .T. ) ;
#98 = VERTEX_POINT ( 'NONE', #25 ) ;
#99 = VECTOR ( 'NONE', #5, 39.37007874015748143 ) ;
#100 = DIRECTION ( 'NONE',  ( 0.000000000000000000, 0.000000000000000000, 1.000000000000000000 ) ) ;
#101 = DIRECTION ( 'NONE',  ( 0.000000000000000000, 0.000000000000000000, 1.000000000000000000 ) ) ;
#102 = ADVANCED_FACE ( 'NONE', ( #6 ), #235, .F. ) ;
#103 = CARTESIAN_POINT ( 'NONE',  ( 0.5625000000000000000, 0.000000000000000000, 0.000000000000000000 ) ) ;
#104 = DIRECTION ( 'NONE',  ( 0.000000000000000000, 0.000000000000000000, 1.000000000000000000 ) ) ;
#105 = CARTESIAN_POINT ( 'NONE',  ( -0.5624999999999998890, 0.000000000000000000, 0.1875000000000000278 ) ) ;
#106 = AXIS2_PLACEMENT_3D ( 'NONE', #219, #194, #159 ) ;
#107 = DIRECTION ( 'NONE',  ( -1.000000000000000000, -0.000000000000000000, -0.000000000000000000 ) ) ;
#108 = EDGE_CURVE ( 'NONE', #150, #17, #228, .T. ) ;
#109 = CALENDAR_DATE ( 2022, 27, 4 ) ;
#110 = PERSON_AND_ORGANIZATION_ROLE ( 'classification_officer' ) ;
#111 = APPROVAL_DATE_TIME ( #129, #192 ) ;
#112 = AXIS2_PLACEMENT_3D ( 'NONE', #82, #115, #157 ) ;
#113 = LOCAL_TIME ( 14, 43, 3.000000000000000000, #147 ) ;
#114 = APPLICATION_CONTEXT ( 'configuration controlled 3d designs of mechanical parts and assemblies' ) ;
#115 = DIRECTION ( 'NONE',  ( 1.000000000000000000, 0.000000000000000000, 0.000000000000000000 ) ) ;
#116 = CYLINDRICAL_SURFACE ( 'NONE', #67, 0.1875000000000000278 ) ;
#117 = CC_DESIGN_PERSON_AND_ORGANIZATION_ASSIGNMENT ( #146, #90, ( #44 ) ) ;
#118 = CYLINDRICAL_SURFACE ( 'NONE', #80, 0.09842519685039370636 ) ;
#119 = AXIS2_PLACEMENT_3D ( 'NONE', #43, #145, #236 ) ;
#120 = EDGE_LOOP ( 'NONE', ( #188, #169 ) ) ;
#121 = CYLINDRICAL_SURFACE ( 'NONE', #91, 0.1875000000000000278 ) ;
#122 = PRODUCT_DEFINITION_SHAPE ( 'NONE', 'NONE',  #34 ) ;
#123 = DIRECTION ( 'NONE',  ( 0.000000000000000000, 0.000000000000000000, 1.000000000000000000 ) ) ;
#124 = CC_DESIGN_DATE_AND_TIME_ASSIGNMENT ( #74, #165, ( #34 ) ) ;
#125 = CARTESIAN_POINT ( 'NONE',  ( -0.5625000000000000000, 0.000000000000000000, 0.000000000000000000 ) ) ;
#126 = CC_DESIGN_SECURITY_CLASSIFICATION ( #61, ( #211 ) ) ;
#127 = DATE_AND_TIME ( #149, #55 ) ;
#128 = APPROVAL_STATUS ( 'not_yet_approved' ) ;
#129 = DATE_AND_TIME ( #222, #177 ) ;
#130 = CIRCLE ( 'NONE', #245, 0.1875000000000000278 ) ;
#131 = PERSON_AND_ORGANIZATION ( #187, #41 ) ;
#132 = ORIENTED_EDGE ( 'NONE', *, *, #153, .T. ) ;
#133 = ORIENTED_EDGE ( 'NONE', *, *, #206, .F. ) ;
#134 = APPROVAL ( #128, 'UNSPECIFIED' ) ;
#135 = FACE_OUTER_BOUND ( 'NONE', #138, .T. ) ;
#136 = VERTEX_POINT ( 'NONE', #105 ) ;
#137 =( GEOMETRIC_REPRESENTATION_CONTEXT ( 3 ) GLOBAL_UNCERTAINTY_ASSIGNED_CONTEXT ( ( #231 ) ) GLOBAL_UNIT_ASSIGNED_CONTEXT ( ( #176, #51, #183 ) ) REPRESENTATION_CONTEXT ( 'NONE', 'WORKASPACE' ) );
#138 = EDGE_LOOP ( 'NONE', ( #133, #152, #230, #56 ) ) ;
#139 = EDGE_CURVE ( 'NONE', #249, #98, #46, .T. ) ;
#140 = LINE ( 'NONE', #160, #99 ) ;
#141 = DIRECTION ( 'NONE',  ( -1.000000000000000000, -0.000000000000000000, -0.000000000000000000 ) ) ;
#142 = AXIS2_PLACEMENT_3D ( 'NONE', #103, #162, #47 ) ;
#143 = LINE ( 'NONE', #48, #52 ) ;
#144 = DIRECTION ( 'NONE',  ( -1.000000000000000000, -0.000000000000000000, -0.000000000000000000 ) ) ;
#145 = DIRECTION ( 'NONE',  ( -1.000000000000000000, -0.000000000000000000, -0.000000000000000000 ) ) ;
#146 = PERSON_AND_ORGANIZATION ( #187, #41 ) ;
#147 = COORDINATED_UNIVERSAL_TIME_OFFSET ( 6, 0, .BEHIND. ) ;
#148 = SECURITY_CLASSIFICATION_LEVEL ( 'unclassified' ) ;
#149 = CALENDAR_DATE ( 2022, 27, 4 ) ;
#150 = VERTEX_POINT ( 'NONE', #218 ) ;
#151 = VECTOR ( 'NONE', #4, 39.37007874015748143 ) ;
#152 = ORIENTED_EDGE ( 'NONE', *, *, #139, .T. ) ;
#153 = EDGE_CURVE ( 'NONE', #251, #150, #158, .T. ) ;
#154 = ORIENTED_EDGE ( 'NONE', *, *, #108, .F. ) ;
#155 = DIRECTION ( 'NONE',  ( -1.000000000000000000, -0.000000000000000000, -0.000000000000000000 ) ) ;
#156 = EDGE_CURVE ( 'NONE', #136, #81, #186, .T. ) ;
#157 = DIRECTION ( 'NONE',  ( 0.000000000000000000, 0.000000000000000000, -1.000000000000000000 ) ) ;
#158 = LINE ( 'NONE', #214, #151 ) ;
#159 = DIRECTION ( 'NONE',  ( 0.000000000000000000, 0.000000000000000000, 1.000000000000000000 ) ) ;
#160 = CARTESIAN_POINT ( 'NONE',  ( -0.5625000000000000000, 0.000000000000000000, 0.09842519685039370636 ) ) ;
#161 = CARTESIAN_POINT ( 'NONE',  ( 0.5624999999999998890, 0.1875000000000000278, 0.000000000000000000 ) ) ;
#162 = DIRECTION ( 'NONE',  ( -1.000000000000000000, -0.000000000000000000, -0.000000000000000000 ) ) ;
#163 = EDGE_CURVE ( 'NONE', #98, #249, #229, .T. ) ;
#164 = AXIS2_PLACEMENT_3D ( 'NONE', #27, #178, #65 ) ;
#165 = DATE_TIME_ROLE ( 'creation_date' ) ;
#166 = APPROVAL_ROLE ( '' ) ;
#167 = CC_DESIGN_APPROVAL ( #192, ( #211 ) ) ;
#168 = PERSON_AND_ORGANIZATION ( #187, #41 ) ;
#169 = ORIENTED_EDGE ( 'NONE', *, *, #139, .F. ) ;
#170 = EDGE_CURVE ( 'NONE', #251, #38, #250, .T. ) ;
#171 = ORIENTED_EDGE ( 'NONE', *, *, #217, .T. ) ;
#172 = AXIS2_PLACEMENT_3D ( 'NONE', #180, #89, #104 ) ;
#173 = PRODUCT_RELATED_PRODUCT_CATEGORY ( 'detail', '', ( #44 ) ) ;
#174 = ORIENTED_EDGE ( 'NONE', *, *, #156, .T. ) ;
#175 = CARTESIAN_POINT ( 'NONE',  ( 0.5625000000000000000, 0.000000000000000000, 0.09842519685039370636 ) ) ;
#176 =( CONVERSION_BASED_UNIT ( 'INCH', #23 ) LENGTH_UNIT ( ) NAMED_UNIT ( #71 ) );
#177 = LOCAL_TIME ( 14, 43, 3.000000000000000000, #72 ) ;
#178 = DIRECTION ( 'NONE',  ( -1.000000000000000000, -0.000000000000000000, -0.000000000000000000 ) ) ;
#179 = DIRECTION ( 'NONE',  ( -1.000000000000000000, -0.000000000000000000, -0.000000000000000000 ) ) ;
#180 = CARTESIAN_POINT ( 'NONE',  ( 0.5625000000000000000, 0.000000000000000000, 0.000000000000000000 ) ) ;
#181 = AXIS2_PLACEMENT_3D ( 'NONE', #184, #10, #221 ) ;
#182 = APPLICATION_PROTOCOL_DEFINITION ( 'international standard', 'config_control_design', 1994, #114 ) ;
#183 =( NAMED_UNIT ( * ) SI_UNIT ( $, .STERADIAN. ) SOLID_ANGLE_UNIT ( ) );
#184 = CARTESIAN_POINT ( 'NONE',  ( 0.000000000000000000, 0.000000000000000000, 0.000000000000000000 ) ) ;
#185 = PERSON_AND_ORGANIZATION ( #187, #41 ) ;
#186 = CIRCLE ( 'NONE', #215, 0.1875000000000000278 ) ;
#187 = PERSON ( 'UNSPECIFIED', 'UNSPECIFIED', 'UNSPECIFIED', ('UNSPECIFIED'), ('UNSPECIFIED'), ('UNSPECIFIED') ) ;
#188 = ORIENTED_EDGE ( 'NONE', *, *, #163, .F. ) ;
#189 = EDGE_LOOP ( 'NONE', ( #174, #171 ) ) ;
#190 = EDGE_LOOP ( 'NONE', ( #96, #232, #97, #54 ) ) ;
#191 = CARTESIAN_POINT ( 'NONE',  ( -0.5625000000000000000, 0.000000000000000000, 0.000000000000000000 ) ) ;
#192 = APPROVAL ( #242, 'UNSPECIFIED' ) ;
#193 = FACE_OUTER_BOUND ( 'NONE', #120, .T. ) ;
#194 = DIRECTION ( 'NONE',  ( -1.000000000000000000, -0.000000000000000000, -0.000000000000000000 ) ) ;
#195 = FACE_OUTER_BOUND ( 'NONE', #207, .T. ) ;
#196 = CARTESIAN_POINT ( 'NONE',  ( -0.5624999999999998890, 2.296212748401287726E-17, -0.1875000000000000278 ) ) ;
#197 = EDGE_CURVE ( 'NONE', #38, #251, #37, .T. ) ;
#198 = LOCAL_TIME ( 14, 43, 3.000000000000000000, #12 ) ;
#199 = APPROVAL_DATE_TIME ( #127, #239 ) ;
#200 = APPROVAL_DATE_TIME ( #243, #134 ) ;
#201 = APPLICATION_PROTOCOL_DEFINITION ( 'international standard', 'config_control_design', 1994, #21 ) ;
#202 = CIRCLE ( 'NONE', #119, 0.09842519685039370636 ) ;
#203 = EDGE_CURVE ( 'NONE', #38, #17, #140, .T. ) ;
#204 = PERSON_AND_ORGANIZATION_ROLE ( 'design_supplier' ) ;
#205 = DATE_AND_TIME ( #94, #198 ) ;
#206 = EDGE_CURVE ( 'NONE', #249, #81, #213, .T. ) ;
#207 = EDGE_LOOP ( 'NONE', ( #227, #209, #13, #252 ) ) ;
#208 = CC_DESIGN_PERSON_AND_ORGANIZATION_ASSIGNMENT ( #224, #244, ( #211 ) ) ;
#209 = ORIENTED_EDGE ( 'NONE', *, *, #206, .T. ) ;
#210 = DIRECTION ( 'NONE',  ( 0.000000000000000000, 0.000000000000000000, 1.000000000000000000 ) ) ;
#211 = PRODUCT_DEFINITION_FORMATION_WITH_SPECIFIED_SOURCE ( 'ANY', '', #44, .NOT_KNOWN. ) ;
#212 = FACE_BOUND ( 'NONE', #248, .T. ) ;
#213 = LINE ( 'NONE', #216, #32 ) ;
#214 = CARTESIAN_POINT ( 'NONE',  ( -0.5625000000000000000, 1.205361022782828035E-17, -0.09842519685039370636 ) ) ;
#215 = AXIS2_PLACEMENT_3D ( 'NONE', #87, #85, #69 ) ;
#216 = CARTESIAN_POINT ( 'NONE',  ( -0.5625000000000000000, 2.296212748401287726E-17, -0.1875000000000000278 ) ) ;
#217 = EDGE_CURVE ( 'NONE', #81, #136, #130, .T. ) ;
#218 = CARTESIAN_POINT ( 'NONE',  ( -0.5625000000000000000, 1.205361022782828035E-17, -0.09842519685039370636 ) ) ;
#219 = CARTESIAN_POINT ( 'NONE',  ( 0.5624999999999998890, 0.000000000000000000, 0.000000000000000000 ) ) ;
#220 = CLOSED_SHELL ( 'NONE', ( #66, #102, #8, #22, #223, #16 ) ) ;
#221 = DIRECTION ( 'NONE',  ( 1.000000000000000000, 0.000000000000000000, 0.000000000000000000 ) ) ;
#222 = CALENDAR_DATE ( 2022, 27, 4 ) ;
#223 = ADVANCED_FACE ( 'NONE', ( #193, #28 ), #237, .F. ) ;
#224 = PERSON_AND_ORGANIZATION ( #187, #41 ) ;
#225 = AXIS2_PLACEMENT_3D ( 'NONE', #125, #107, #26 ) ;
#226 = PERSON_AND_ORGANIZATION ( #187, #41 ) ;
#227 = ORIENTED_EDGE ( 'NONE', *, *, #163, .T. ) ;
#228 = CIRCLE ( 'NONE', #164, 0.09842519685039370636 ) ;
#229 = CIRCLE ( 'NONE', #106, 0.1875000000000000278 ) ;
#230 = ORIENTED_EDGE ( 'NONE', *, *, #246, .T. ) ;
#231 = UNCERTAINTY_MEASURE_WITH_UNIT (LENGTH_MEASURE( 1.000000000000000082E-05 ), #176, 'distance_accuracy_value', 'NONE');
#232 = ORIENTED_EDGE ( 'NONE', *, *, #197, .F. ) ;
#233 = CARTESIAN_POINT ( 'NONE',  ( -0.5625000000000000000, 0.000000000000000000, 0.09842519685039370636 ) ) ;
#234 = CC_DESIGN_APPROVAL ( #239, ( #61 ) ) ;
#235 = CYLINDRICAL_SURFACE ( 'NONE', #225, 0.09842519685039370636 ) ;
#236 = DIRECTION ( 'NONE',  ( 0.000000000000000000, 0.000000000000000000, 1.000000000000000000 ) ) ;
#237 = PLANE ( 'NONE',  #18 ) ;
#238 = DIRECTION ( 'NONE',  ( -1.000000000000000000, -0.000000000000000000, -0.000000000000000000 ) ) ;
#239 = APPROVAL ( #35, 'UNSPECIFIED' ) ;
#240 = DIRECTION ( 'NONE',  ( -0.000000000000000000, 0.000000000000000000, 1.000000000000000000 ) ) ;
#241 = CC_DESIGN_APPROVAL ( #134, ( #34 ) ) ;
#242 = APPROVAL_STATUS ( 'not_yet_approved' ) ;
#243 = DATE_AND_TIME ( #109, #75 ) ;
#244 = PERSON_AND_ORGANIZATION_ROLE ( 'creator' ) ;
#245 = AXIS2_PLACEMENT_3D ( 'NONE', #45, #179, #123 ) ;
#246 = EDGE_CURVE ( 'NONE', #98, #136, #143, .T. ) ;
#247 = APPROVAL_ROLE ( '' ) ;
#248 = EDGE_LOOP ( 'NONE', ( #63, #154 ) ) ;
#249 = VERTEX_POINT ( 'NONE', #49 ) ;
#250 = CIRCLE ( 'NONE', #142, 0.09842519685039370636 ) ;
#251 = VERTEX_POINT ( 'NONE', #2 ) ;
#252 = ORIENTED_EDGE ( 'NONE', *, *, #246, .F. ) ;
ENDSEC;
END-ISO-10303-21;
