ISO-10303-21;
HEADER;
FILE_DESCRIPTION (( 'STEP AP203' ),
    '1' );
FILE_NAME ('REV-21-2599.STEP',
    '2022-04-19T16:47:17',
    ( '' ),
    ( '' ),
    'SwSTEP 2.0',
    'SolidWorks 2022',
    '' );
FILE_SCHEMA (( 'CONFIG_CONTROL_DESIGN' ));
ENDSEC;

DATA;
#1 = CARTESIAN_POINT ( 'NONE',  ( -0.3543307086614173040, 0.03937007874015747977, 0.03937007874015747977 ) ) ;
#2 = DIRECTION ( 'NONE',  ( 1.000000000000000000, 0.000000000000000000, -0.000000000000000000 ) ) ;
#3 = DIRECTION ( 'NONE',  ( 1.000000000000000000, 0.000000000000000000, 0.000000000000000000 ) ) ;
#4 = VECTOR ( 'NONE', #128, 39.37007874015748143 ) ;
#5 = ADVANCED_FACE ( 'NONE', ( #105 ), #15, .F. ) ;
#6 = PERSON_AND_ORGANIZATION_ROLE ( 'creator' ) ;
#7 = DIRECTION ( 'NONE',  ( 0.000000000000000000, 0.000000000000000000, 1.000000000000000000 ) ) ;
#8 = CIRCLE ( 'NONE', #48, 0.03937007874015744507 ) ;
#9 = APPROVAL_PERSON_ORGANIZATION ( #182, #40, #50 ) ;
#10 = CALENDAR_DATE ( 2022, 19, 4 ) ;
#11 = ORIENTED_EDGE ( 'NONE', *, *, #89, .T. ) ;
#12 = PERSON_AND_ORGANIZATION ( #78, #113 ) ;
#13 = ORIENTED_EDGE ( 'NONE', *, *, #194, .F. ) ;
#14 = CARTESIAN_POINT ( 'NONE',  ( -0.3937007874015747699, 1.235462044803069456E-17, 0.03937007874015747977 ) ) ;
#15 = PLANE ( 'NONE',  #215 ) ;
#16 = VECTOR ( 'NONE', #38, 39.37007874015748143 ) ;
#17 = VERTEX_POINT ( 'NONE', #57 ) ;
#18 = LINE ( 'NONE', #116, #104 ) ;
#19 = LINE ( 'NONE', #155, #207 ) ;
#20 = AXIS2_PLACEMENT_3D ( 'NONE', #129, #63, #107 ) ;
#21 = CYLINDRICAL_SURFACE ( 'NONE', #125, 0.03937007874015744507 ) ;
#22 = DIRECTION ( 'NONE',  ( -1.000000000000000000, 0.000000000000000000, 0.000000000000000000 ) ) ;
#23 = CC_DESIGN_PERSON_AND_ORGANIZATION_ASSIGNMENT ( #250, #119, ( #232 ) ) ;
#24 = CARTESIAN_POINT ( 'NONE',  ( 0.3543307086614173040, 1.235462044803066528E-17, -0.03937007874015747977 ) ) ;
#25 = CIRCLE ( 'NONE', #64, 0.03937007874015744507 ) ;
#26 = PERSON_AND_ORGANIZATION ( #78, #113 ) ;
#27 = ORIENTED_EDGE ( 'NONE', *, *, #130, .F. ) ;
#28 = APPROVAL ( #270, 'UNSPECIFIED' ) ;
#29 = APPROVAL_ROLE ( '' ) ;
#30 = ORIENTED_EDGE ( 'NONE', *, *, #189, .F. ) ;
#31 = CC_DESIGN_PERSON_AND_ORGANIZATION_ASSIGNMENT ( #225, #6, ( #140 ) ) ;
#32 = EDGE_LOOP ( 'NONE', ( #131, #88, #80, #11, #124 ) ) ;
#33 = MANIFOLD_SOLID_BREP ( 'Boss-Extrude1', #72 ) ;
#34 = DIRECTION ( 'NONE',  ( -0.000000000000000000, -0.000000000000000000, -1.000000000000000000 ) ) ;
#35 = AXIS2_PLACEMENT_3D ( 'NONE', #1, #44, #92 ) ;
#36 = ORIENTED_EDGE ( 'NONE', *, *, #58, .T. ) ;
#37 = DIRECTION ( 'NONE',  ( -0.000000000000000000, -0.000000000000000000, -1.000000000000000000 ) ) ;
#38 = DIRECTION ( 'NONE',  ( 1.000000000000000000, 0.000000000000000000, 0.000000000000000000 ) ) ;
#39 = CARTESIAN_POINT ( 'NONE',  ( -0.3543307086614173040, 0.03937007874015747977, 0.03937007874015747977 ) ) ;
#40 = APPROVAL ( #184, 'UNSPECIFIED' ) ;
#41 =( NAMED_UNIT ( * ) PLANE_ANGLE_UNIT ( ) SI_UNIT ( $, .RADIAN. ) );
#42 = DIRECTION ( 'NONE',  ( -0.000000000000000000, -0.000000000000000000, -1.000000000000000000 ) ) ;
#43 = CC_DESIGN_APPROVAL ( #120, ( #140 ) ) ;
#44 = DIRECTION ( 'NONE',  ( 0.000000000000000000, -1.000000000000000000, 0.000000000000000000 ) ) ;
#45 = DIRECTION ( 'NONE',  ( 0.000000000000000000, 0.000000000000000000, 1.000000000000000000 ) ) ;
#46 = CARTESIAN_POINT ( 'NONE',  ( 0.3543307086614173040, -0.03937007874015747283, 0.03937007874015747977 ) ) ;
#47 = PERSON_AND_ORGANIZATION_ROLE ( 'creator' ) ;
#48 = AXIS2_PLACEMENT_3D ( 'NONE', #201, #244, #115 ) ;
#49 = VERTEX_POINT ( 'NONE', #197 ) ;
#50 = APPROVAL_ROLE ( '' ) ;
#51 = APPROVAL_ROLE ( '' ) ;
#52 = EDGE_LOOP ( 'NONE', ( #212, #256, #143, #185 ) ) ;
#53 = APPLICATION_PROTOCOL_DEFINITION ( 'international standard', 'config_control_design', 1994, #228 ) ;
#54 = EDGE_LOOP ( 'NONE', ( #227, #36, #237, #138 ) ) ;
#55 = EDGE_CURVE ( 'NONE', #17, #213, #202, .T. ) ;
#56 = SHAPE_DEFINITION_REPRESENTATION ( #167, #160 ) ;
#57 = CARTESIAN_POINT ( 'NONE',  ( -0.3543307086614173040, 0.03937007874015747977, 0.03937007874015747977 ) ) ;
#58 = EDGE_CURVE ( 'NONE', #213, #249, #255, .T. ) ;
#59 = CARTESIAN_POINT ( 'NONE',  ( -0.3543307086614173040, -0.03937007874015747977, 0.03937007874015747977 ) ) ;
#60 = APPROVAL_PERSON_ORGANIZATION ( #210, #120, #29 ) ;
#61 = CARTESIAN_POINT ( 'NONE',  ( -0.3543307086614173040, 1.235462044803069456E-17, -0.03937007874015747977 ) ) ;
#62 = CARTESIAN_POINT ( 'NONE',  ( 0.3543307086614173040, 1.235462044803066528E-17, 0.03937007874015747977 ) ) ;
#63 = DIRECTION ( 'NONE',  ( 0.000000000000000000, 1.000000000000000000, 0.000000000000000000 ) ) ;
#64 = AXIS2_PLACEMENT_3D ( 'NONE', #90, #242, #3 ) ;
#65 = CC_DESIGN_PERSON_AND_ORGANIZATION_ASSIGNMENT ( #26, #204, ( #81 ) ) ;
#66 = FACE_OUTER_BOUND ( 'NONE', #32, .T. ) ;
#67 = DIRECTION ( 'NONE',  ( 1.000000000000000000, 0.000000000000000000, 0.000000000000000000 ) ) ;
#68 = CARTESIAN_POINT ( 'NONE',  ( 0.3543307086614173040, 1.235462044803066528E-17, 0.03937007874015747977 ) ) ;
#69 =( NAMED_UNIT ( * ) SI_UNIT ( $, .STERADIAN. ) SOLID_ANGLE_UNIT ( ) );
#70 = PERSON_AND_ORGANIZATION_ROLE ( 'design_supplier' ) ;
#71 = ORIENTED_EDGE ( 'NONE', *, *, #189, .T. ) ;
#72 = CLOSED_SHELL ( 'NONE', ( #217, #121, #96, #149, #240, #144, #5 ) ) ;
#73 = APPLICATION_CONTEXT ( 'configuration controlled 3d designs of mechanical parts and assemblies' ) ;
#74 = DIRECTION ( 'NONE',  ( 1.000000000000000000, 0.000000000000000000, 0.000000000000000000 ) ) ;
#75 = EDGE_LOOP ( 'NONE', ( #171, #271, #187, #175 ) ) ;
#76 = CALENDAR_DATE ( 2022, 19, 4 ) ;
#77 = EDGE_CURVE ( 'NONE', #161, #17, #87, .T. ) ;
#78 = PERSON ( 'UNSPECIFIED', 'UNSPECIFIED', 'UNSPECIFIED', ('UNSPECIFIED'), ('UNSPECIFIED'), ('UNSPECIFIED') ) ;
#79 = APPROVAL_DATE_TIME ( #230, #120 ) ;
#80 = ORIENTED_EDGE ( 'NONE', *, *, #109, .T. ) ;
#81 = SECURITY_CLASSIFICATION ( '', '', #99 ) ;
#82 = DIRECTION ( 'NONE',  ( 1.000000000000000000, 0.000000000000000000, 0.000000000000000000 ) ) ;
#83 = CC_DESIGN_DATE_AND_TIME_ASSIGNMENT ( #164, #272, ( #81 ) ) ;
#84 = VERTEX_POINT ( 'NONE', #59 ) ;
#85 = DIRECTION ( 'NONE',  ( -0.000000000000000000, -0.000000000000000000, -1.000000000000000000 ) ) ;
#86 = CIRCLE ( 'NONE', #199, 0.03937007874015744507 ) ;
#87 = LINE ( 'NONE', #258, #4 ) ;
#88 = ORIENTED_EDGE ( 'NONE', *, *, #153, .T. ) ;
#89 = EDGE_CURVE ( 'NONE', #238, #161, #118, .T. ) ;
#90 = CARTESIAN_POINT ( 'NONE',  ( -0.3543307086614173040, 1.235462044803069456E-17, 0.03937007874015747977 ) ) ;
#91 = LINE ( 'NONE', #111, #147 ) ;
#92 = DIRECTION ( 'NONE',  ( 0.000000000000000000, -0.000000000000000000, -1.000000000000000000 ) ) ;
#93 = LENGTH_MEASURE_WITH_UNIT ( LENGTH_MEASURE( 0.02539999999999999897 ), #263 );
#94 = CARTESIAN_POINT ( 'NONE',  ( -0.3937007874015747699, 1.235462044803069456E-17, 0.03937007874015747977 ) ) ;
#95 = COORDINATED_UNIVERSAL_TIME_OFFSET ( 6, 0, .BEHIND. ) ;
#96 = ADVANCED_FACE ( 'NONE', ( #146 ), #150, .F. ) ;
#97 = LOCAL_TIME ( 11, 47, 17.00000000000000000, #203 ) ;
#98 = EDGE_LOOP ( 'NONE', ( #233, #231, #211, #142 ) ) ;
#99 = SECURITY_CLASSIFICATION_LEVEL ( 'unclassified' ) ;
#100 = DESIGN_CONTEXT ( 'detailed design', #73, 'design' ) ;
#101 = VERTEX_POINT ( 'NONE', #195 ) ;
#102 = CALENDAR_DATE ( 2022, 19, 4 ) ;
#103 = DIRECTION ( 'NONE',  ( -0.000000000000000000, -0.000000000000000000, -1.000000000000000000 ) ) ;
#104 = VECTOR ( 'NONE', #67, 39.37007874015748143 ) ;
#105 = FACE_OUTER_BOUND ( 'NONE', #253, .T. ) ;
#106 = CC_DESIGN_DATE_AND_TIME_ASSIGNMENT ( #181, #165, ( #140 ) ) ;
#107 = DIRECTION ( 'NONE',  ( 0.000000000000000000, -0.000000000000000000, 1.000000000000000000 ) ) ;
#108 = VECTOR ( 'NONE', #37, 39.37007874015748143 ) ;
#109 = EDGE_CURVE ( 'NONE', #84, #238, #192, .T. ) ;
#110 = VERTEX_POINT ( 'NONE', #241 ) ;
#111 = CARTESIAN_POINT ( 'NONE',  ( 0.3543307086614173040, 0.03937007874015747977, 0.03937007874015747977 ) ) ;
#112 = EDGE_CURVE ( 'NONE', #17, #110, #275, .T. ) ;
#113 = ORGANIZATION ( 'UNSPECIFIED', 'UNSPECIFIED', '' ) ;
#114 = LOCAL_TIME ( 11, 47, 17.00000000000000000, #123 ) ;
#115 = DIRECTION ( 'NONE',  ( 1.000000000000000000, 0.000000000000000000, 0.000000000000000000 ) ) ;
#116 = CARTESIAN_POINT ( 'NONE',  ( -0.3543307086614173040, -0.03937007874015747977, -0.03937007874015747977 ) ) ;
#117 = DIRECTION ( 'NONE',  ( 0.000000000000000000, 0.000000000000000000, 1.000000000000000000 ) ) ;
#118 = CIRCLE ( 'NONE', #268, 0.03937007874015744507 ) ;
#119 = PERSON_AND_ORGANIZATION_ROLE ( 'design_owner' ) ;
#120 = APPROVAL ( #267, 'UNSPECIFIED' ) ;
#121 = ADVANCED_FACE ( 'NONE', ( #133 ), #218, .T. ) ;
#122 = ORIENTED_EDGE ( 'NONE', *, *, #169, .T. ) ;
#123 = COORDINATED_UNIVERSAL_TIME_OFFSET ( 6, 0, .BEHIND. ) ;
#124 = ORIENTED_EDGE ( 'NONE', *, *, #77, .T. ) ;
#125 = AXIS2_PLACEMENT_3D ( 'NONE', #137, #261, #179 ) ;
#126 = PRODUCT_RELATED_PRODUCT_CATEGORY ( 'detail', '', ( #232 ) ) ;
#127 = CC_DESIGN_APPROVAL ( #40, ( #81 ) ) ;
#128 = DIRECTION ( 'NONE',  ( -1.000000000000000000, -0.000000000000000000, -0.000000000000000000 ) ) ;
#129 = CARTESIAN_POINT ( 'NONE',  ( -0.3543307086614173040, -0.03937007874015747977, 0.03937007874015747977 ) ) ;
#130 = EDGE_CURVE ( 'NONE', #110, #249, #273, .T. ) ;
#131 = ORIENTED_EDGE ( 'NONE', *, *, #55, .T. ) ;
#132 = LOCAL_TIME ( 11, 47, 17.00000000000000000, #188 ) ;
#133 = FACE_OUTER_BOUND ( 'NONE', #52, .T. ) ;
#134 = CARTESIAN_POINT ( 'NONE',  ( -0.3937007874015747699, 1.235462044803069456E-17, -0.03937007874015747977 ) ) ;
#135 = DIRECTION ( 'NONE',  ( -0.000000000000000000, -0.000000000000000000, -1.000000000000000000 ) ) ;
#136 = EDGE_CURVE ( 'NONE', #84, #206, #145, .T. ) ;
#137 = CARTESIAN_POINT ( 'NONE',  ( -0.3543307086614173040, 1.235462044803069456E-17, 0.03937007874015747977 ) ) ;
#138 = ORIENTED_EDGE ( 'NONE', *, *, #136, .F. ) ;
#139 = DATE_AND_TIME ( #252, #251 ) ;
#140 = PRODUCT_DEFINITION ( 'UNKNOWN', '', #156, #100 ) ;
#141 = PERSON_AND_ORGANIZATION ( #78, #113 ) ;
#142 = ORIENTED_EDGE ( 'NONE', *, *, #163, .T. ) ;
#143 = ORIENTED_EDGE ( 'NONE', *, *, #112, .T. ) ;
#144 = ADVANCED_FACE ( 'NONE', ( #66 ), #198, .T. ) ;
#145 = LINE ( 'NONE', #234, #180 ) ;
#146 = FACE_OUTER_BOUND ( 'NONE', #75, .T. ) ;
#147 = VECTOR ( 'NONE', #200, 39.37007874015748143 ) ;
#148 = CARTESIAN_POINT ( 'NONE',  ( -0.3543307086614173040, 1.235462044803069456E-17, 0.03937007874015747977 ) ) ;
#149 = ADVANCED_FACE ( 'NONE', ( #221 ), #219, .T. ) ;
#150 = PLANE ( 'NONE',  #20 ) ;
#151 = CARTESIAN_POINT ( 'NONE',  ( -0.3543307086614173040, 1.235462044803069456E-17, -0.03937007874015747977 ) ) ;
#152 = FACE_OUTER_BOUND ( 'NONE', #98, .T. ) ;
#153 = EDGE_CURVE ( 'NONE', #213, #84, #25, .T. ) ;
#154 = FACE_OUTER_BOUND ( 'NONE', #54, .T. ) ;
#155 = CARTESIAN_POINT ( 'NONE',  ( -0.3543307086614173040, 0.03937007874015747977, -0.03937007874015747977 ) ) ;
#156 = PRODUCT_DEFINITION_FORMATION_WITH_SPECIFIED_SOURCE ( 'ANY', '', #232, .NOT_KNOWN. ) ;
#157 = CARTESIAN_POINT ( 'NONE',  ( 0.3543307086614173040, 0.03937007874015747977, 0.03937007874015747977 ) ) ;
#158 = EDGE_CURVE ( 'NONE', #101, #110, #19, .T. ) ;
#159 = APPROVAL_DATE_TIME ( #208, #28 ) ;
#160 = ADVANCED_BREP_SHAPE_REPRESENTATION ( 'REV-21-2599', ( #33, #183 ), #235 ) ;
#161 = VERTEX_POINT ( 'NONE', #157 ) ;
#162 = AXIS2_PLACEMENT_3D ( 'NONE', #220, #45, #2 ) ;
#163 = EDGE_CURVE ( 'NONE', #161, #101, #91, .T. ) ;
#164 = DATE_AND_TIME ( #102, #132 ) ;
#165 = DATE_TIME_ROLE ( 'creation_date' ) ;
#166 = CALENDAR_DATE ( 2022, 19, 4 ) ;
#167 = PRODUCT_DEFINITION_SHAPE ( 'NONE', 'NONE',  #140 ) ;
#168 = APPLICATION_PROTOCOL_DEFINITION ( 'international standard', 'config_control_design', 1994, #73 ) ;
#169 = EDGE_CURVE ( 'NONE', #238, #49, #246, .T. ) ;
#170 = DIRECTION ( 'NONE',  ( 0.000000000000000000, 0.000000000000000000, 1.000000000000000000 ) ) ;
#171 = ORIENTED_EDGE ( 'NONE', *, *, #172, .T. ) ;
#172 = EDGE_CURVE ( 'NONE', #206, #49, #18, .T. ) ;
#173 = CARTESIAN_POINT ( 'NONE',  ( -0.3543307086614173040, 1.235462044803069456E-17, 0.03937007874015747977 ) ) ;
#174 = CC_DESIGN_APPROVAL ( #28, ( #156 ) ) ;
#175 = ORIENTED_EDGE ( 'NONE', *, *, #136, .T. ) ;
#176 = DIRECTION ( 'NONE',  ( 0.000000000000000000, 0.000000000000000000, 1.000000000000000000 ) ) ;
#177 = DIRECTION ( 'NONE',  ( 1.000000000000000000, 0.000000000000000000, 0.000000000000000000 ) ) ;
#178 = VECTOR ( 'NONE', #85, 39.37007874015748143 ) ;
#179 = DIRECTION ( 'NONE',  ( -1.000000000000000000, 0.000000000000000000, 0.000000000000000000 ) ) ;
#180 = VECTOR ( 'NONE', #34, 39.37007874015748143 ) ;
#181 = DATE_AND_TIME ( #10, #276 ) ;
#182 = PERSON_AND_ORGANIZATION ( #78, #113 ) ;
#183 = AXIS2_PLACEMENT_3D ( 'NONE', #223, #7, #74 ) ;
#184 = APPROVAL_STATUS ( 'not_yet_approved' ) ;
#185 = ORIENTED_EDGE ( 'NONE', *, *, #130, .T. ) ;
#186 = APPROVAL_DATE_TIME ( #139, #40 ) ;
#187 = ORIENTED_EDGE ( 'NONE', *, *, #109, .F. ) ;
#188 = COORDINATED_UNIVERSAL_TIME_OFFSET ( 6, 0, .BEHIND. ) ;
#189 = EDGE_CURVE ( 'NONE', #49, #101, #86, .T. ) ;
#190 = AXIS2_PLACEMENT_3D ( 'NONE', #68, #42, #22 ) ;
#191 = APPROVAL_PERSON_ORGANIZATION ( #248, #28, #51 ) ;
#192 = LINE ( 'NONE', #239, #16 ) ;
#193 = DIRECTION ( 'NONE',  ( 1.000000000000000000, 0.000000000000000000, 0.000000000000000000 ) ) ;
#194 = EDGE_CURVE ( 'NONE', #249, #206, #8, .T. ) ;
#195 = CARTESIAN_POINT ( 'NONE',  ( 0.3543307086614173040, 0.03937007874015747977, -0.03937007874015747977 ) ) ;
#196 = DIRECTION ( 'NONE',  ( 1.000000000000000000, 0.000000000000000000, -0.000000000000000000 ) ) ;
#197 = CARTESIAN_POINT ( 'NONE',  ( 0.3543307086614173040, -0.03937007874015747283, -0.03937007874015747977 ) ) ;
#198 = PLANE ( 'NONE',  #162 ) ;
#199 = AXIS2_PLACEMENT_3D ( 'NONE', #24, #117, #177 ) ;
#200 = DIRECTION ( 'NONE',  ( -0.000000000000000000, -0.000000000000000000, -1.000000000000000000 ) ) ;
#201 = CARTESIAN_POINT ( 'NONE',  ( -0.3543307086614173040, 1.235462044803069456E-17, -0.03937007874015747977 ) ) ;
#202 = CIRCLE ( 'NONE', #264, 0.03937007874015744507 ) ;
#203 = COORDINATED_UNIVERSAL_TIME_OFFSET ( 6, 0, .BEHIND. ) ;
#204 = PERSON_AND_ORGANIZATION_ROLE ( 'classification_officer' ) ;
#205 = UNCERTAINTY_MEASURE_WITH_UNIT (LENGTH_MEASURE( 1.000000000000000082E-05 ), #265, 'distance_accuracy_value', 'NONE');
#206 = VERTEX_POINT ( 'NONE', #262 ) ;
#207 = VECTOR ( 'NONE', #222, 39.37007874015748143 ) ;
#208 = DATE_AND_TIME ( #76, #114 ) ;
#209 = ORIENTED_EDGE ( 'NONE', *, *, #89, .F. ) ;
#210 = PERSON_AND_ORGANIZATION ( #78, #113 ) ;
#211 = ORIENTED_EDGE ( 'NONE', *, *, #77, .F. ) ;
#212 = ORIENTED_EDGE ( 'NONE', *, *, #58, .F. ) ;
#213 = VERTEX_POINT ( 'NONE', #94 ) ;
#214 = ORIENTED_EDGE ( 'NONE', *, *, #172, .F. ) ;
#215 = AXIS2_PLACEMENT_3D ( 'NONE', #151, #278, #196 ) ;
#216 = EDGE_LOOP ( 'NONE', ( #71, #277, #209, #122 ) ) ;
#217 = ADVANCED_FACE ( 'NONE', ( #154 ), #21, .T. ) ;
#218 = CYLINDRICAL_SURFACE ( 'NONE', #224, 0.03937007874015744507 ) ;
#219 = CYLINDRICAL_SURFACE ( 'NONE', #190, 0.03937007874015744507 ) ;
#220 = CARTESIAN_POINT ( 'NONE',  ( -0.3543307086614173040, 1.235462044803069456E-17, 0.03937007874015747977 ) ) ;
#221 = FACE_OUTER_BOUND ( 'NONE', #216, .T. ) ;
#222 = DIRECTION ( 'NONE',  ( -1.000000000000000000, -0.000000000000000000, -0.000000000000000000 ) ) ;
#223 = CARTESIAN_POINT ( 'NONE',  ( 0.000000000000000000, 0.000000000000000000, 0.000000000000000000 ) ) ;
#224 = AXIS2_PLACEMENT_3D ( 'NONE', #173, #103, #274 ) ;
#225 = PERSON_AND_ORGANIZATION ( #78, #113 ) ;
#226 = CC_DESIGN_PERSON_AND_ORGANIZATION_ASSIGNMENT ( #141, #70, ( #156 ) ) ;
#227 = ORIENTED_EDGE ( 'NONE', *, *, #153, .F. ) ;
#228 = APPLICATION_CONTEXT ( 'configuration controlled 3d designs of mechanical parts and assemblies' ) ;
#229 = COORDINATED_UNIVERSAL_TIME_OFFSET ( 6, 0, .BEHIND. ) ;
#230 = DATE_AND_TIME ( #166, #97 ) ;
#231 = ORIENTED_EDGE ( 'NONE', *, *, #112, .F. ) ;
#232 = PRODUCT ( 'REV-21-2599', 'REV-21-2599', '', ( #247 ) ) ;
#233 = ORIENTED_EDGE ( 'NONE', *, *, #158, .T. ) ;
#234 = CARTESIAN_POINT ( 'NONE',  ( -0.3543307086614173040, -0.03937007874015747977, 0.03937007874015747977 ) ) ;
#235 =( GEOMETRIC_REPRESENTATION_CONTEXT ( 3 ) GLOBAL_UNCERTAINTY_ASSIGNED_CONTEXT ( ( #205 ) ) GLOBAL_UNIT_ASSIGNED_CONTEXT ( ( #265, #41, #69 ) ) REPRESENTATION_CONTEXT ( 'NONE', 'WORKASPACE' ) );
#236 = CC_DESIGN_SECURITY_CLASSIFICATION ( #81, ( #156 ) ) ;
#237 = ORIENTED_EDGE ( 'NONE', *, *, #194, .T. ) ;
#238 = VERTEX_POINT ( 'NONE', #46 ) ;
#239 = CARTESIAN_POINT ( 'NONE',  ( -0.3543307086614173040, -0.03937007874015747977, 0.03937007874015747977 ) ) ;
#240 = ADVANCED_FACE ( 'NONE', ( #152 ), #243, .F. ) ;
#241 = CARTESIAN_POINT ( 'NONE',  ( -0.3543307086614173040, 0.03937007874015747977, -0.03937007874015747977 ) ) ;
#242 = DIRECTION ( 'NONE',  ( 0.000000000000000000, 0.000000000000000000, 1.000000000000000000 ) ) ;
#243 = PLANE ( 'NONE',  #35 ) ;
#244 = DIRECTION ( 'NONE',  ( 0.000000000000000000, 0.000000000000000000, 1.000000000000000000 ) ) ;
#245 = AXIS2_PLACEMENT_3D ( 'NONE', #61, #170, #254 ) ;
#246 = LINE ( 'NONE', #279, #260 ) ;
#247 = MECHANICAL_CONTEXT ( 'NONE', #228, 'mechanical' ) ;
#248 = PERSON_AND_ORGANIZATION ( #78, #113 ) ;
#249 = VERTEX_POINT ( 'NONE', #134 ) ;
#250 = PERSON_AND_ORGANIZATION ( #78, #113 ) ;
#251 = LOCAL_TIME ( 11, 47, 17.00000000000000000, #229 ) ;
#252 = CALENDAR_DATE ( 2022, 19, 4 ) ;
#253 = EDGE_LOOP ( 'NONE', ( #27, #269, #30, #214, #13 ) ) ;
#254 = DIRECTION ( 'NONE',  ( 1.000000000000000000, 0.000000000000000000, 0.000000000000000000 ) ) ;
#255 = LINE ( 'NONE', #14, #108 ) ;
#256 = ORIENTED_EDGE ( 'NONE', *, *, #55, .F. ) ;
#257 = DIMENSIONAL_EXPONENTS ( 1.000000000000000000, 0.000000000000000000, 0.000000000000000000, 0.000000000000000000, 0.000000000000000000, 0.000000000000000000, 0.000000000000000000 ) ;
#258 = CARTESIAN_POINT ( 'NONE',  ( -0.3543307086614173040, 0.03937007874015747977, 0.03937007874015747977 ) ) ;
#259 = DIRECTION ( 'NONE',  ( 0.000000000000000000, 0.000000000000000000, 1.000000000000000000 ) ) ;
#260 = VECTOR ( 'NONE', #135, 39.37007874015748143 ) ;
#261 = DIRECTION ( 'NONE',  ( -0.000000000000000000, -0.000000000000000000, -1.000000000000000000 ) ) ;
#262 = CARTESIAN_POINT ( 'NONE',  ( -0.3543307086614173040, -0.03937007874015747977, -0.03937007874015747977 ) ) ;
#263 =( LENGTH_UNIT ( ) NAMED_UNIT ( * ) SI_UNIT ( $, .METRE. ) );
#264 = AXIS2_PLACEMENT_3D ( 'NONE', #148, #176, #82 ) ;
#265 =( CONVERSION_BASED_UNIT ( 'INCH', #93 ) LENGTH_UNIT ( ) NAMED_UNIT ( #257 ) );
#266 = CC_DESIGN_PERSON_AND_ORGANIZATION_ASSIGNMENT ( #12, #47, ( #156 ) ) ;
#267 = APPROVAL_STATUS ( 'not_yet_approved' ) ;
#268 = AXIS2_PLACEMENT_3D ( 'NONE', #62, #259, #193 ) ;
#269 = ORIENTED_EDGE ( 'NONE', *, *, #158, .F. ) ;
#270 = APPROVAL_STATUS ( 'not_yet_approved' ) ;
#271 = ORIENTED_EDGE ( 'NONE', *, *, #169, .F. ) ;
#272 = DATE_TIME_ROLE ( 'classification_date' ) ;
#273 = CIRCLE ( 'NONE', #245, 0.03937007874015744507 ) ;
#274 = DIRECTION ( 'NONE',  ( -1.000000000000000000, 0.000000000000000000, 0.000000000000000000 ) ) ;
#275 = LINE ( 'NONE', #39, #178 ) ;
#276 = LOCAL_TIME ( 11, 47, 17.00000000000000000, #95 ) ;
#277 = ORIENTED_EDGE ( 'NONE', *, *, #163, .F. ) ;
#278 = DIRECTION ( 'NONE',  ( 0.000000000000000000, 0.000000000000000000, 1.000000000000000000 ) ) ;
#279 = CARTESIAN_POINT ( 'NONE',  ( 0.3543307086614173040, -0.03937007874015747283, 0.03937007874015747977 ) ) ;
ENDSEC;
END-ISO-10303-21;
