ISO-10303-21;
HEADER;
/* Generated by software containing ST-Developer
 * from STEP Tools, Inc. (www.steptools.com) 
 */
/* OPTION: using custom renumber hook */

FILE_DESCRIPTION(
/* description */ ('STEP AP242',
'CAx-IF Rec.Pracs.---Representation and Presentation of Product Manufa
cturing Information (PMI)---4.0---2014-10-13',
'CAx-IF Rec.Pracs.---3D Tessellated Geometry---0.4---2014-09-14','2;1'),

/* implementation_level */ '2;1');

FILE_NAME(
/* name */ '676db41bcfc6e8715f7f90eb',
/* time_stamp */ '2024-12-26T19:53:00Z',
/* author */ (''),
/* organization */ (''),
/* preprocessor_version */ 'ST-DEVELOPER v20',
/* originating_system */ 'ONSHAPE BY PTC INC, 1.191',
/* authorisation */ '  ');

FILE_SCHEMA (('AP242_MANAGED_MODEL_BASED_3D_ENGINEERING_MIM_LF { 1 0 10303 442 1 1 4 }'));
ENDSEC;

DATA;
#10=SHAPE_REPRESENTATION_RELATIONSHIP('','',#351,#11);
#11=ADVANCED_BREP_SHAPE_REPRESENTATION('',(#349),#589);
#12=CIRCLE('',#355,0.0025);
#13=CIRCLE('',#356,0.0025);
#14=CIRCLE('',#359,0.0025);
#15=CIRCLE('',#360,0.0025);
#16=CIRCLE('',#363,0.0025);
#17=CIRCLE('',#364,0.0025);
#18=CIRCLE('',#367,0.0026);
#19=CIRCLE('',#368,0.0026);
#20=CIRCLE('',#370,0.00175);
#21=CIRCLE('',#371,0.00175);
#22=CIRCLE('',#373,0.0026);
#23=CIRCLE('',#374,0.0026);
#24=CIRCLE('',#376,0.0026);
#25=CIRCLE('',#377,0.0026);
#26=CIRCLE('',#379,0.00175);
#27=CIRCLE('',#380,0.00175);
#28=CIRCLE('',#382,0.00175);
#29=CIRCLE('',#383,0.00175);
#30=CIRCLE('',#385,0.00175);
#31=CIRCLE('',#386,0.00175);
#32=CIRCLE('',#388,0.00175);
#33=CIRCLE('',#389,0.00175);
#34=CIRCLE('',#391,0.0025);
#35=CIRCLE('',#392,0.0025);
#36=CYLINDRICAL_SURFACE('',#354,0.0025);
#37=CYLINDRICAL_SURFACE('',#358,0.0025);
#38=CYLINDRICAL_SURFACE('',#362,0.0025);
#39=CYLINDRICAL_SURFACE('',#366,0.0026);
#40=CYLINDRICAL_SURFACE('',#369,0.00175);
#41=CYLINDRICAL_SURFACE('',#372,0.0026);
#42=CYLINDRICAL_SURFACE('',#375,0.0026);
#43=CYLINDRICAL_SURFACE('',#378,0.00175);
#44=CYLINDRICAL_SURFACE('',#381,0.00175);
#45=CYLINDRICAL_SURFACE('',#384,0.00175);
#46=CYLINDRICAL_SURFACE('',#387,0.00175);
#47=CYLINDRICAL_SURFACE('',#390,0.0025);
#48=ORIENTED_EDGE('',*,*,#128,.F.);
#49=ORIENTED_EDGE('',*,*,#129,.F.);
#50=ORIENTED_EDGE('',*,*,#130,.T.);
#51=ORIENTED_EDGE('',*,*,#131,.T.);
#52=ORIENTED_EDGE('',*,*,#132,.T.);
#53=ORIENTED_EDGE('',*,*,#133,.F.);
#54=ORIENTED_EDGE('',*,*,#134,.F.);
#55=ORIENTED_EDGE('',*,*,#129,.T.);
#56=ORIENTED_EDGE('',*,*,#135,.F.);
#57=ORIENTED_EDGE('',*,*,#136,.F.);
#58=ORIENTED_EDGE('',*,*,#137,.T.);
#59=ORIENTED_EDGE('',*,*,#133,.T.);
#60=ORIENTED_EDGE('',*,*,#138,.T.);
#61=ORIENTED_EDGE('',*,*,#139,.F.);
#62=ORIENTED_EDGE('',*,*,#140,.F.);
#63=ORIENTED_EDGE('',*,*,#136,.T.);
#64=ORIENTED_EDGE('',*,*,#141,.T.);
#65=ORIENTED_EDGE('',*,*,#142,.F.);
#66=ORIENTED_EDGE('',*,*,#143,.F.);
#67=ORIENTED_EDGE('',*,*,#139,.T.);
#68=ORIENTED_EDGE('',*,*,#144,.T.);
#69=ORIENTED_EDGE('',*,*,#145,.F.);
#70=ORIENTED_EDGE('',*,*,#146,.F.);
#71=ORIENTED_EDGE('',*,*,#142,.T.);
#72=ORIENTED_EDGE('',*,*,#147,.T.);
#73=ORIENTED_EDGE('',*,*,#148,.F.);
#74=ORIENTED_EDGE('',*,*,#149,.F.);
#75=ORIENTED_EDGE('',*,*,#145,.T.);
#76=ORIENTED_EDGE('',*,*,#150,.T.);
#77=ORIENTED_EDGE('',*,*,#151,.F.);
#78=ORIENTED_EDGE('',*,*,#152,.T.);
#79=ORIENTED_EDGE('',*,*,#153,.F.);
#80=ORIENTED_EDGE('',*,*,#154,.T.);
#81=ORIENTED_EDGE('',*,*,#155,.F.);
#82=ORIENTED_EDGE('',*,*,#156,.T.);
#83=ORIENTED_EDGE('',*,*,#157,.F.);
#84=ORIENTED_EDGE('',*,*,#158,.T.);
#85=ORIENTED_EDGE('',*,*,#159,.F.);
#86=ORIENTED_EDGE('',*,*,#160,.T.);
#87=ORIENTED_EDGE('',*,*,#161,.F.);
#88=ORIENTED_EDGE('',*,*,#162,.T.);
#89=ORIENTED_EDGE('',*,*,#163,.F.);
#90=ORIENTED_EDGE('',*,*,#164,.T.);
#91=ORIENTED_EDGE('',*,*,#165,.F.);
#92=ORIENTED_EDGE('',*,*,#166,.T.);
#93=ORIENTED_EDGE('',*,*,#131,.F.);
#94=ORIENTED_EDGE('',*,*,#167,.F.);
#95=ORIENTED_EDGE('',*,*,#148,.T.);
#96=ORIENTED_EDGE('',*,*,#164,.F.);
#97=ORIENTED_EDGE('',*,*,#162,.F.);
#98=ORIENTED_EDGE('',*,*,#160,.F.);
#99=ORIENTED_EDGE('',*,*,#158,.F.);
#100=ORIENTED_EDGE('',*,*,#156,.F.);
#101=ORIENTED_EDGE('',*,*,#154,.F.);
#102=ORIENTED_EDGE('',*,*,#152,.F.);
#103=ORIENTED_EDGE('',*,*,#150,.F.);
#104=ORIENTED_EDGE('',*,*,#130,.F.);
#105=ORIENTED_EDGE('',*,*,#134,.T.);
#106=ORIENTED_EDGE('',*,*,#137,.F.);
#107=ORIENTED_EDGE('',*,*,#140,.T.);
#108=ORIENTED_EDGE('',*,*,#143,.T.);
#109=ORIENTED_EDGE('',*,*,#146,.T.);
#110=ORIENTED_EDGE('',*,*,#149,.T.);
#111=ORIENTED_EDGE('',*,*,#167,.T.);
#112=ORIENTED_EDGE('',*,*,#165,.T.);
#113=ORIENTED_EDGE('',*,*,#163,.T.);
#114=ORIENTED_EDGE('',*,*,#161,.T.);
#115=ORIENTED_EDGE('',*,*,#159,.T.);
#116=ORIENTED_EDGE('',*,*,#157,.T.);
#117=ORIENTED_EDGE('',*,*,#155,.T.);
#118=ORIENTED_EDGE('',*,*,#153,.T.);
#119=ORIENTED_EDGE('',*,*,#151,.T.);
#120=ORIENTED_EDGE('',*,*,#128,.T.);
#121=ORIENTED_EDGE('',*,*,#166,.F.);
#122=ORIENTED_EDGE('',*,*,#147,.F.);
#123=ORIENTED_EDGE('',*,*,#144,.F.);
#124=ORIENTED_EDGE('',*,*,#141,.F.);
#125=ORIENTED_EDGE('',*,*,#138,.F.);
#126=ORIENTED_EDGE('',*,*,#135,.T.);
#127=ORIENTED_EDGE('',*,*,#132,.F.);
#128=EDGE_CURVE('',#168,#169,#200,.T.);
#129=EDGE_CURVE('',#170,#168,#201,.T.);
#130=EDGE_CURVE('',#170,#171,#202,.T.);
#131=EDGE_CURVE('',#171,#169,#203,.T.);
#132=EDGE_CURVE('',#168,#172,#12,.T.);
#133=EDGE_CURVE('',#173,#172,#204,.T.);
#134=EDGE_CURVE('',#170,#173,#13,.T.);
#135=EDGE_CURVE('',#174,#172,#205,.T.);
#136=EDGE_CURVE('',#175,#174,#206,.T.);
#137=EDGE_CURVE('',#175,#173,#207,.T.);
#138=EDGE_CURVE('',#174,#176,#14,.T.);
#139=EDGE_CURVE('',#177,#176,#208,.T.);
#140=EDGE_CURVE('',#175,#177,#15,.T.);
#141=EDGE_CURVE('',#176,#178,#209,.T.);
#142=EDGE_CURVE('',#179,#178,#210,.T.);
#143=EDGE_CURVE('',#177,#179,#211,.T.);
#144=EDGE_CURVE('',#178,#180,#16,.T.);
#145=EDGE_CURVE('',#181,#180,#212,.T.);
#146=EDGE_CURVE('',#179,#181,#17,.T.);
#147=EDGE_CURVE('',#180,#182,#213,.T.);
#148=EDGE_CURVE('',#183,#182,#214,.T.);
#149=EDGE_CURVE('',#181,#183,#215,.T.);
#150=EDGE_CURVE('',#184,#184,#18,.T.);
#151=EDGE_CURVE('',#185,#185,#19,.T.);
#152=EDGE_CURVE('',#186,#186,#20,.T.);
#153=EDGE_CURVE('',#187,#187,#21,.T.);
#154=EDGE_CURVE('',#188,#188,#22,.T.);
#155=EDGE_CURVE('',#189,#189,#23,.T.);
#156=EDGE_CURVE('',#190,#190,#24,.T.);
#157=EDGE_CURVE('',#191,#191,#25,.T.);
#158=EDGE_CURVE('',#192,#192,#26,.T.);
#159=EDGE_CURVE('',#193,#193,#27,.T.);
#160=EDGE_CURVE('',#194,#194,#28,.T.);
#161=EDGE_CURVE('',#195,#195,#29,.T.);
#162=EDGE_CURVE('',#196,#196,#30,.T.);
#163=EDGE_CURVE('',#197,#197,#31,.T.);
#164=EDGE_CURVE('',#198,#198,#32,.T.);
#165=EDGE_CURVE('',#199,#199,#33,.T.);
#166=EDGE_CURVE('',#182,#169,#34,.T.);
#167=EDGE_CURVE('',#183,#171,#35,.T.);
#168=VERTEX_POINT('',#500);
#169=VERTEX_POINT('',#501);
#170=VERTEX_POINT('',#503);
#171=VERTEX_POINT('',#505);
#172=VERTEX_POINT('',#509);
#173=VERTEX_POINT('',#511);
#174=VERTEX_POINT('',#515);
#175=VERTEX_POINT('',#517);
#176=VERTEX_POINT('',#521);
#177=VERTEX_POINT('',#523);
#178=VERTEX_POINT('',#527);
#179=VERTEX_POINT('',#529);
#180=VERTEX_POINT('',#533);
#181=VERTEX_POINT('',#535);
#182=VERTEX_POINT('',#539);
#183=VERTEX_POINT('',#541);
#184=VERTEX_POINT('',#545);
#185=VERTEX_POINT('',#547);
#186=VERTEX_POINT('',#550);
#187=VERTEX_POINT('',#552);
#188=VERTEX_POINT('',#555);
#189=VERTEX_POINT('',#557);
#190=VERTEX_POINT('',#560);
#191=VERTEX_POINT('',#562);
#192=VERTEX_POINT('',#565);
#193=VERTEX_POINT('',#567);
#194=VERTEX_POINT('',#570);
#195=VERTEX_POINT('',#572);
#196=VERTEX_POINT('',#575);
#197=VERTEX_POINT('',#577);
#198=VERTEX_POINT('',#580);
#199=VERTEX_POINT('',#582);
#200=LINE('',#499,#216);
#201=LINE('',#502,#217);
#202=LINE('',#504,#218);
#203=LINE('',#506,#219);
#204=LINE('',#510,#220);
#205=LINE('',#514,#221);
#206=LINE('',#516,#222);
#207=LINE('',#518,#223);
#208=LINE('',#522,#224);
#209=LINE('',#526,#225);
#210=LINE('',#528,#226);
#211=LINE('',#530,#227);
#212=LINE('',#534,#228);
#213=LINE('',#538,#229);
#214=LINE('',#540,#230);
#215=LINE('',#542,#231);
#216=VECTOR('',#399,1.);
#217=VECTOR('',#400,1.);
#218=VECTOR('',#401,1.);
#219=VECTOR('',#402,1.);
#220=VECTOR('',#407,1.);
#221=VECTOR('',#412,1.);
#222=VECTOR('',#413,1.);
#223=VECTOR('',#414,1.);
#224=VECTOR('',#419,1.);
#225=VECTOR('',#424,1.);
#226=VECTOR('',#425,1.);
#227=VECTOR('',#426,1.);
#228=VECTOR('',#431,1.);
#229=VECTOR('',#436,1.);
#230=VECTOR('',#437,1.);
#231=VECTOR('',#438,1.);
#232=EDGE_LOOP('',(#48,#49,#50,#51));
#233=EDGE_LOOP('',(#52,#53,#54,#55));
#234=EDGE_LOOP('',(#56,#57,#58,#59));
#235=EDGE_LOOP('',(#60,#61,#62,#63));
#236=EDGE_LOOP('',(#64,#65,#66,#67));
#237=EDGE_LOOP('',(#68,#69,#70,#71));
#238=EDGE_LOOP('',(#72,#73,#74,#75));
#239=EDGE_LOOP('',(#76));
#240=EDGE_LOOP('',(#77));
#241=EDGE_LOOP('',(#78));
#242=EDGE_LOOP('',(#79));
#243=EDGE_LOOP('',(#80));
#244=EDGE_LOOP('',(#81));
#245=EDGE_LOOP('',(#82));
#246=EDGE_LOOP('',(#83));
#247=EDGE_LOOP('',(#84));
#248=EDGE_LOOP('',(#85));
#249=EDGE_LOOP('',(#86));
#250=EDGE_LOOP('',(#87));
#251=EDGE_LOOP('',(#88));
#252=EDGE_LOOP('',(#89));
#253=EDGE_LOOP('',(#90));
#254=EDGE_LOOP('',(#91));
#255=EDGE_LOOP('',(#92,#93,#94,#95));
#256=EDGE_LOOP('',(#96));
#257=EDGE_LOOP('',(#97));
#258=EDGE_LOOP('',(#98));
#259=EDGE_LOOP('',(#99));
#260=EDGE_LOOP('',(#100));
#261=EDGE_LOOP('',(#101));
#262=EDGE_LOOP('',(#102));
#263=EDGE_LOOP('',(#103));
#264=EDGE_LOOP('',(#104,#105,#106,#107,#108,#109,#110,#111));
#265=EDGE_LOOP('',(#112));
#266=EDGE_LOOP('',(#113));
#267=EDGE_LOOP('',(#114));
#268=EDGE_LOOP('',(#115));
#269=EDGE_LOOP('',(#116));
#270=EDGE_LOOP('',(#117));
#271=EDGE_LOOP('',(#118));
#272=EDGE_LOOP('',(#119));
#273=EDGE_LOOP('',(#120,#121,#122,#123,#124,#125,#126,#127));
#274=FACE_BOUND('',#232,.T.);
#275=FACE_BOUND('',#233,.T.);
#276=FACE_BOUND('',#234,.T.);
#277=FACE_BOUND('',#235,.T.);
#278=FACE_BOUND('',#236,.T.);
#279=FACE_BOUND('',#237,.T.);
#280=FACE_BOUND('',#238,.T.);
#281=FACE_BOUND('',#239,.T.);
#282=FACE_BOUND('',#240,.T.);
#283=FACE_BOUND('',#241,.T.);
#284=FACE_BOUND('',#242,.T.);
#285=FACE_BOUND('',#243,.T.);
#286=FACE_BOUND('',#244,.T.);
#287=FACE_BOUND('',#245,.T.);
#288=FACE_BOUND('',#246,.T.);
#289=FACE_BOUND('',#247,.T.);
#290=FACE_BOUND('',#248,.T.);
#291=FACE_BOUND('',#249,.T.);
#292=FACE_BOUND('',#250,.T.);
#293=FACE_BOUND('',#251,.T.);
#294=FACE_BOUND('',#252,.T.);
#295=FACE_BOUND('',#253,.T.);
#296=FACE_BOUND('',#254,.T.);
#297=FACE_BOUND('',#255,.T.);
#298=FACE_BOUND('',#256,.T.);
#299=FACE_BOUND('',#257,.T.);
#300=FACE_BOUND('',#258,.T.);
#301=FACE_BOUND('',#259,.T.);
#302=FACE_BOUND('',#260,.T.);
#303=FACE_BOUND('',#261,.T.);
#304=FACE_BOUND('',#262,.T.);
#305=FACE_BOUND('',#263,.T.);
#306=FACE_BOUND('',#264,.T.);
#307=FACE_BOUND('',#265,.T.);
#308=FACE_BOUND('',#266,.T.);
#309=FACE_BOUND('',#267,.T.);
#310=FACE_BOUND('',#268,.T.);
#311=FACE_BOUND('',#269,.T.);
#312=FACE_BOUND('',#270,.T.);
#313=FACE_BOUND('',#271,.T.);
#314=FACE_BOUND('',#272,.T.);
#315=FACE_BOUND('',#273,.T.);
#316=PLANE('',#353);
#317=PLANE('',#357);
#318=PLANE('',#361);
#319=PLANE('',#365);
#320=PLANE('',#393);
#321=PLANE('',#394);
#322=ADVANCED_FACE('',(#274),#316,.T.);
#323=ADVANCED_FACE('',(#275),#36,.T.);
#324=ADVANCED_FACE('',(#276),#317,.T.);
#325=ADVANCED_FACE('',(#277),#37,.T.);
#326=ADVANCED_FACE('',(#278),#318,.F.);
#327=ADVANCED_FACE('',(#279),#38,.T.);
#328=ADVANCED_FACE('',(#280),#319,.F.);
#329=ADVANCED_FACE('',(#281,#282),#39,.F.);
#330=ADVANCED_FACE('',(#283,#284),#40,.F.);
#331=ADVANCED_FACE('',(#285,#286),#41,.F.);
#332=ADVANCED_FACE('',(#287,#288),#42,.F.);
#333=ADVANCED_FACE('',(#289,#290),#43,.F.);
#334=ADVANCED_FACE('',(#291,#292),#44,.F.);
#335=ADVANCED_FACE('',(#293,#294),#45,.F.);
#336=ADVANCED_FACE('',(#295,#296),#46,.F.);
#337=ADVANCED_FACE('',(#297),#47,.T.);
#338=ADVANCED_FACE('',(#298,#299,#300,#301,#302,#303,#304,#305,#306),#320,
 .T.);
#339=ADVANCED_FACE('',(#307,#308,#309,#310,#311,#312,#313,#314,#315),#321,
 .F.);
#340=CLOSED_SHELL('',(#322,#323,#324,#325,#326,#327,#328,#329,#330,#331,
#332,#333,#334,#335,#336,#337,#338,#339));
#341=STYLED_ITEM('',(#342),#349);
#342=PRESENTATION_STYLE_ASSIGNMENT((#343));
#343=SURFACE_STYLE_USAGE(.BOTH.,#344);
#344=SURFACE_SIDE_STYLE('',(#345));
#345=SURFACE_STYLE_FILL_AREA(#346);
#346=FILL_AREA_STYLE('',(#347));
#347=FILL_AREA_STYLE_COLOUR('',#348);
#348=COLOUR_RGB('',0.615686274509804,0.811764705882353,0.929411764705882);
#349=MANIFOLD_SOLID_BREP('Part 1',#340);
#350=SHAPE_DEFINITION_REPRESENTATION(#594,#351);
#351=SHAPE_REPRESENTATION('Part 1',(#352),#589);
#352=AXIS2_PLACEMENT_3D('',#497,#395,#396);
#353=AXIS2_PLACEMENT_3D('',#498,#397,#398);
#354=AXIS2_PLACEMENT_3D('',#507,#403,#404);
#355=AXIS2_PLACEMENT_3D('',#508,#405,#406);
#356=AXIS2_PLACEMENT_3D('',#512,#408,#409);
#357=AXIS2_PLACEMENT_3D('',#513,#410,#411);
#358=AXIS2_PLACEMENT_3D('',#519,#415,#416);
#359=AXIS2_PLACEMENT_3D('',#520,#417,#418);
#360=AXIS2_PLACEMENT_3D('',#524,#420,#421);
#361=AXIS2_PLACEMENT_3D('',#525,#422,#423);
#362=AXIS2_PLACEMENT_3D('',#531,#427,#428);
#363=AXIS2_PLACEMENT_3D('',#532,#429,#430);
#364=AXIS2_PLACEMENT_3D('',#536,#432,#433);
#365=AXIS2_PLACEMENT_3D('',#537,#434,#435);
#366=AXIS2_PLACEMENT_3D('',#543,#439,#440);
#367=AXIS2_PLACEMENT_3D('',#544,#441,#442);
#368=AXIS2_PLACEMENT_3D('',#546,#443,#444);
#369=AXIS2_PLACEMENT_3D('',#548,#445,#446);
#370=AXIS2_PLACEMENT_3D('',#549,#447,#448);
#371=AXIS2_PLACEMENT_3D('',#551,#449,#450);
#372=AXIS2_PLACEMENT_3D('',#553,#451,#452);
#373=AXIS2_PLACEMENT_3D('',#554,#453,#454);
#374=AXIS2_PLACEMENT_3D('',#556,#455,#456);
#375=AXIS2_PLACEMENT_3D('',#558,#457,#458);
#376=AXIS2_PLACEMENT_3D('',#559,#459,#460);
#377=AXIS2_PLACEMENT_3D('',#561,#461,#462);
#378=AXIS2_PLACEMENT_3D('',#563,#463,#464);
#379=AXIS2_PLACEMENT_3D('',#564,#465,#466);
#380=AXIS2_PLACEMENT_3D('',#566,#467,#468);
#381=AXIS2_PLACEMENT_3D('',#568,#469,#470);
#382=AXIS2_PLACEMENT_3D('',#569,#471,#472);
#383=AXIS2_PLACEMENT_3D('',#571,#473,#474);
#384=AXIS2_PLACEMENT_3D('',#573,#475,#476);
#385=AXIS2_PLACEMENT_3D('',#574,#477,#478);
#386=AXIS2_PLACEMENT_3D('',#576,#479,#480);
#387=AXIS2_PLACEMENT_3D('',#578,#481,#482);
#388=AXIS2_PLACEMENT_3D('',#579,#483,#484);
#389=AXIS2_PLACEMENT_3D('',#581,#485,#486);
#390=AXIS2_PLACEMENT_3D('',#583,#487,#488);
#391=AXIS2_PLACEMENT_3D('',#584,#489,#490);
#392=AXIS2_PLACEMENT_3D('',#585,#491,#492);
#393=AXIS2_PLACEMENT_3D('',#586,#493,#494);
#394=AXIS2_PLACEMENT_3D('',#587,#495,#496);
#395=DIRECTION('',(0.,0.,1.));
#396=DIRECTION('',(1.,0.,0.));
#397=DIRECTION('',(1.,4.95635278850516E-17,0.));
#398=DIRECTION('',(4.95635278850516E-17,-1.,0.));
#399=DIRECTION('',(4.95635278850516E-17,-1.,0.));
#400=DIRECTION('',(0.,0.,-1.));
#401=DIRECTION('',(4.95635278850516E-17,-1.,0.));
#402=DIRECTION('',(0.,0.,-1.));
#403=DIRECTION('',(0.,0.,-1.));
#404=DIRECTION('',(0.,1.,0.));
#405=DIRECTION('',(0.,0.,1.));
#406=DIRECTION('',(0.,-1.,0.));
#407=DIRECTION('',(0.,0.,-1.));
#408=DIRECTION('',(0.,0.,1.));
#409=DIRECTION('',(0.,-1.,0.));
#410=DIRECTION('',(0.,1.,0.));
#411=DIRECTION('',(1.,0.,0.));
#412=DIRECTION('',(1.,0.,0.));
#413=DIRECTION('',(0.,0.,-1.));
#414=DIRECTION('',(1.,0.,0.));
#415=DIRECTION('',(0.,0.,-1.));
#416=DIRECTION('',(0.,1.,0.));
#417=DIRECTION('',(0.,0.,1.));
#418=DIRECTION('',(0.,-1.,0.));
#419=DIRECTION('',(0.,0.,-1.));
#420=DIRECTION('',(0.,0.,1.));
#421=DIRECTION('',(0.,-1.,0.));
#422=DIRECTION('',(1.,9.91270557701033E-17,0.));
#423=DIRECTION('',(9.91270557701033E-17,-1.,0.));
#424=DIRECTION('',(9.91270557701033E-17,-1.,0.));
#425=DIRECTION('',(0.,0.,-1.));
#426=DIRECTION('',(9.91270557701033E-17,-1.,0.));
#427=DIRECTION('',(0.,0.,-1.));
#428=DIRECTION('',(0.,1.,0.));
#429=DIRECTION('',(0.,0.,1.));
#430=DIRECTION('',(0.,-1.,0.));
#431=DIRECTION('',(0.,0.,-1.));
#432=DIRECTION('',(0.,0.,1.));
#433=DIRECTION('',(0.,-1.,0.));
#434=DIRECTION('',(0.,1.,0.));
#435=DIRECTION('',(1.,0.,0.));
#436=DIRECTION('',(1.,0.,0.));
#437=DIRECTION('',(0.,0.,-1.));
#438=DIRECTION('',(1.,0.,0.));
#439=DIRECTION('',(0.,0.,-1.));
#440=DIRECTION('',(0.,1.,0.));
#441=DIRECTION('',(0.,0.,1.));
#442=DIRECTION('',(0.,-1.,0.));
#443=DIRECTION('',(0.,0.,1.));
#444=DIRECTION('',(0.,-1.,0.));
#445=DIRECTION('',(0.,0.,-1.));
#446=DIRECTION('',(0.,1.,0.));
#447=DIRECTION('',(0.,0.,1.));
#448=DIRECTION('',(0.,-1.,0.));
#449=DIRECTION('',(0.,0.,1.));
#450=DIRECTION('',(0.,-1.,0.));
#451=DIRECTION('',(0.,0.,-1.));
#452=DIRECTION('',(0.,1.,0.));
#453=DIRECTION('',(0.,0.,1.));
#454=DIRECTION('',(0.,-1.,0.));
#455=DIRECTION('',(0.,0.,1.));
#456=DIRECTION('',(0.,-1.,0.));
#457=DIRECTION('',(0.,0.,-1.));
#458=DIRECTION('',(0.,1.,0.));
#459=DIRECTION('',(0.,0.,1.));
#460=DIRECTION('',(0.,-1.,0.));
#461=DIRECTION('',(0.,0.,1.));
#462=DIRECTION('',(0.,-1.,0.));
#463=DIRECTION('',(0.,0.,-1.));
#464=DIRECTION('',(0.,1.,0.));
#465=DIRECTION('',(0.,0.,1.));
#466=DIRECTION('',(0.,-1.,0.));
#467=DIRECTION('',(0.,0.,1.));
#468=DIRECTION('',(0.,-1.,0.));
#469=DIRECTION('',(0.,0.,-1.));
#470=DIRECTION('',(0.,1.,0.));
#471=DIRECTION('',(0.,0.,1.));
#472=DIRECTION('',(0.,-1.,0.));
#473=DIRECTION('',(0.,0.,1.));
#474=DIRECTION('',(0.,-1.,0.));
#475=DIRECTION('',(0.,0.,-1.));
#476=DIRECTION('',(0.,1.,0.));
#477=DIRECTION('',(0.,0.,1.));
#478=DIRECTION('',(0.,-1.,0.));
#479=DIRECTION('',(0.,0.,1.));
#480=DIRECTION('',(0.,-1.,0.));
#481=DIRECTION('',(0.,0.,-1.));
#482=DIRECTION('',(0.,1.,0.));
#483=DIRECTION('',(0.,0.,1.));
#484=DIRECTION('',(0.,-1.,0.));
#485=DIRECTION('',(0.,0.,1.));
#486=DIRECTION('',(0.,-1.,0.));
#487=DIRECTION('',(0.,0.,-1.));
#488=DIRECTION('',(0.,1.,0.));
#489=DIRECTION('',(0.,0.,1.));
#490=DIRECTION('',(0.,-1.,0.));
#491=DIRECTION('',(0.,0.,1.));
#492=DIRECTION('',(0.,-1.,0.));
#493=DIRECTION('',(0.,0.,1.));
#494=DIRECTION('',(1.,0.,0.));
#495=DIRECTION('',(0.,0.,1.));
#496=DIRECTION('',(1.,0.,0.));
#497=CARTESIAN_POINT('',(0.,0.,0.));
#498=CARTESIAN_POINT('',(0.00635,0.0127000000000004,0.00635));
#499=CARTESIAN_POINT('',(0.00635,0.0127000000000004,0.));
#500=CARTESIAN_POINT('',(0.00635,0.0302000000000005,0.));
#501=CARTESIAN_POINT('',(0.00635,-0.00479999999999956,0.));
#502=CARTESIAN_POINT('',(0.00635,0.0302000000000005,0.00635));
#503=CARTESIAN_POINT('',(0.00635,0.0302000000000005,0.00635));
#504=CARTESIAN_POINT('',(0.00635,0.0127000000000004,0.00635));
#505=CARTESIAN_POINT('',(0.00635,-0.00479999999999956,0.00635));
#506=CARTESIAN_POINT('',(0.00635,-0.00479999999999956,0.00635));
#507=CARTESIAN_POINT('',(0.00385,0.0302000000000005,0.00635));
#508=CARTESIAN_POINT('',(0.00385,0.0302000000000005,0.));
#509=CARTESIAN_POINT('',(0.00385,0.0327,0.));
#510=CARTESIAN_POINT('',(0.00385,0.0327,0.00635));
#511=CARTESIAN_POINT('',(0.00385,0.0327,0.00635));
#512=CARTESIAN_POINT('',(0.00385,0.0302000000000005,0.00635));
#513=CARTESIAN_POINT('',(-0.00317,0.0327,0.00635));
#514=CARTESIAN_POINT('',(-0.00317,0.0327,0.));
#515=CARTESIAN_POINT('',(-0.01019,0.0327000000000005,0.));
#516=CARTESIAN_POINT('',(-0.01019,0.0327000000000005,0.00635));
#517=CARTESIAN_POINT('',(-0.01019,0.0327000000000005,0.00635));
#518=CARTESIAN_POINT('',(-0.00317,0.0327,0.00635));
#519=CARTESIAN_POINT('',(-0.01019,0.0302000000000005,0.00635));
#520=CARTESIAN_POINT('',(-0.01019,0.0302000000000005,0.));
#521=CARTESIAN_POINT('',(-0.01269,0.0302000000000005,0.));
#522=CARTESIAN_POINT('',(-0.01269,0.0302000000000005,0.00635));
#523=CARTESIAN_POINT('',(-0.01269,0.0302000000000005,0.00635));
#524=CARTESIAN_POINT('',(-0.01019,0.0302000000000005,0.00635));
#525=CARTESIAN_POINT('',(-0.01269,0.0127000000000004,0.00635));
#526=CARTESIAN_POINT('',(-0.01269,0.0127000000000004,0.));
#527=CARTESIAN_POINT('',(-0.01269,-0.00479999999999956,0.));
#528=CARTESIAN_POINT('',(-0.01269,-0.00479999999999956,0.00635));
#529=CARTESIAN_POINT('',(-0.01269,-0.00479999999999956,0.00635));
#530=CARTESIAN_POINT('',(-0.01269,0.0127000000000004,0.00635));
#531=CARTESIAN_POINT('',(-0.01019,-0.00479999999999956,0.00635));
#532=CARTESIAN_POINT('',(-0.01019,-0.00479999999999956,0.));
#533=CARTESIAN_POINT('',(-0.01019,-0.00729999999999956,0.));
#534=CARTESIAN_POINT('',(-0.01019,-0.00729999999999956,0.00635));
#535=CARTESIAN_POINT('',(-0.01019,-0.00729999999999956,0.00635));
#536=CARTESIAN_POINT('',(-0.01019,-0.00479999999999956,0.00635));
#537=CARTESIAN_POINT('',(-0.00317,-0.00729999999999956,0.00635));
#538=CARTESIAN_POINT('',(-0.00317,-0.00729999999999956,0.));
#539=CARTESIAN_POINT('',(0.00385,-0.00729999999999956,0.));
#540=CARTESIAN_POINT('',(0.00385,-0.00729999999999956,0.00635));
#541=CARTESIAN_POINT('',(0.00385,-0.00729999999999956,0.00635));
#542=CARTESIAN_POINT('',(-0.00317,-0.00729999999999956,0.00635));
#543=CARTESIAN_POINT('',(0.00161,7.96545972578479E-18,0.00635));
#544=CARTESIAN_POINT('',(0.00161,7.96545972578479E-18,0.00635));
#545=CARTESIAN_POINT('',(0.00161,-0.00259999999999999,0.00635));
#546=CARTESIAN_POINT('',(0.00161,7.96545972578479E-18,0.));
#547=CARTESIAN_POINT('',(0.00161,-0.00259999999999999,0.));
#548=CARTESIAN_POINT('',(-0.00792,1.07156594925393E-19,0.00635));
#549=CARTESIAN_POINT('',(-0.00792,1.07156594925393E-19,0.00635));
#550=CARTESIAN_POINT('',(-0.00792,-0.00175,0.00635));
#551=CARTESIAN_POINT('',(-0.00792,1.07156594925393E-19,0.));
#552=CARTESIAN_POINT('',(-0.00792,-0.00175,0.));
#553=CARTESIAN_POINT('',(0.00161,0.0127,0.00635));
#554=CARTESIAN_POINT('',(0.00161,0.0127,0.00635));
#555=CARTESIAN_POINT('',(0.00161,0.0101,0.00635));
#556=CARTESIAN_POINT('',(0.00161,0.0127,0.));
#557=CARTESIAN_POINT('',(0.00161,0.0101,0.));
#558=CARTESIAN_POINT('',(0.00161,0.0254,0.00635));
#559=CARTESIAN_POINT('',(0.00161,0.0254,0.00635));
#560=CARTESIAN_POINT('',(0.00161,0.0228,0.00635));
#561=CARTESIAN_POINT('',(0.00161,0.0254,0.));
#562=CARTESIAN_POINT('',(0.00161,0.0228,0.));
#563=CARTESIAN_POINT('',(-0.00792,0.00635,0.00635));
#564=CARTESIAN_POINT('',(-0.00792,0.00635,0.00635));
#565=CARTESIAN_POINT('',(-0.00792,0.0046,0.00635));
#566=CARTESIAN_POINT('',(-0.00792,0.00635,0.));
#567=CARTESIAN_POINT('',(-0.00792,0.0046,0.));
#568=CARTESIAN_POINT('',(-0.00792,0.0127,0.00635));
#569=CARTESIAN_POINT('',(-0.00792,0.0127,0.00635));
#570=CARTESIAN_POINT('',(-0.00792,0.01095,0.00635));
#571=CARTESIAN_POINT('',(-0.00792,0.0127,0.));
#572=CARTESIAN_POINT('',(-0.00792,0.01095,0.));
#573=CARTESIAN_POINT('',(-0.00792,0.01905,0.00635));
#574=CARTESIAN_POINT('',(-0.00792,0.01905,0.00635));
#575=CARTESIAN_POINT('',(-0.00792,0.0173,0.00635));
#576=CARTESIAN_POINT('',(-0.00792,0.01905,0.));
#577=CARTESIAN_POINT('',(-0.00792,0.0173,0.));
#578=CARTESIAN_POINT('',(-0.00792,0.0254,0.00635));
#579=CARTESIAN_POINT('',(-0.00792,0.0254,0.00635));
#580=CARTESIAN_POINT('',(-0.00792,0.02365,0.00635));
#581=CARTESIAN_POINT('',(-0.00792,0.0254,0.));
#582=CARTESIAN_POINT('',(-0.00792,0.02365,0.));
#583=CARTESIAN_POINT('',(0.00385,-0.00479999999999956,0.00635));
#584=CARTESIAN_POINT('',(0.00385,-0.00479999999999956,0.));
#585=CARTESIAN_POINT('',(0.00385,-0.00479999999999956,0.00635));
#586=CARTESIAN_POINT('',(0.00933,0.0127000000000004,0.00635));
#587=CARTESIAN_POINT('',(0.00933,0.0127000000000004,0.));
#588=MECHANICAL_DESIGN_GEOMETRIC_PRESENTATION_REPRESENTATION('',(#341),
#589);
#589=(
GEOMETRIC_REPRESENTATION_CONTEXT(3)
GLOBAL_UNCERTAINTY_ASSIGNED_CONTEXT((#590))
GLOBAL_UNIT_ASSIGNED_CONTEXT((#593,#592,#591))
REPRESENTATION_CONTEXT('Part 1','TOP_LEVEL_ASSEMBLY_PART')
);
#590=UNCERTAINTY_MEASURE_WITH_UNIT(LENGTH_MEASURE(1.E-8),#593,
'DISTANCE_ACCURACY_VALUE','Maximum Tolerance applied to model');
#591=(
NAMED_UNIT(*)
SI_UNIT($,.STERADIAN.)
SOLID_ANGLE_UNIT()
);
#592=(
NAMED_UNIT(*)
PLANE_ANGLE_UNIT()
SI_UNIT($,.RADIAN.)
);
#593=(
LENGTH_UNIT()
NAMED_UNIT(*)
SI_UNIT($,.METRE.)
);
#594=PRODUCT_DEFINITION_SHAPE('','',#595);
#595=PRODUCT_DEFINITION('','',#597,#596);
#596=PRODUCT_DEFINITION_CONTEXT('',#603,'design');
#597=PRODUCT_DEFINITION_FORMATION_WITH_SPECIFIED_SOURCE('','',#599,
 .NOT_KNOWN.);
#598=PRODUCT_RELATED_PRODUCT_CATEGORY('','',(#599));
#599=PRODUCT('Part 1','Part 1','Part 1',(#601));
#600=PRODUCT_CATEGORY('','');
#601=PRODUCT_CONTEXT('',#603,'mechanical');
#602=APPLICATION_PROTOCOL_DEFINITION('international standard',
'ap242_managed_model_based_3d_engineering',2011,#603);
#603=APPLICATION_CONTEXT('managed model based 3d engineering');
ENDSEC;
END-ISO-10303-21;
