ISO-10303-21;
HEADER;
FILE_DESCRIPTION (( 'STEP AP203' ),
    '1' );
FILE_NAME ('REV-41-1323.STEP',
    '2022-08-18T22:46:45',
    ( '' ),
    ( '' ),
    'SwSTEP 2.0',
    'SolidWorks 2022',
    '' );
FILE_SCHEMA (( 'CONFIG_CONTROL_DESIGN' ));
ENDSEC;

DATA;
#1 = DIRECTION ( 'NONE',  ( -0.4999999999999998890, 0.8660254037844387076, 0.000000000000000000 ) ) ;
#2 = ORIENTED_EDGE ( 'NONE', *, *, #189, .F. ) ;
#3 = APPROVAL ( #176, 'UNSPECIFIED' ) ;
#4 = ORIENTED_EDGE ( 'NONE', *, *, #53, .T. ) ;
#5 = CARTESIAN_POINT ( 'NONE',  ( -1.472243186433545903, 2.550000000000001155, -7.500000000000000888 ) ) ;
#6 = ORIENTED_EDGE ( 'NONE', *, *, #329, .T. ) ;
#7 = CARTESIAN_POINT ( 'NONE',  ( 2.944486372867091362, 0.000000000000000000, 0.000000000000000000 ) ) ;
#8 = APPROVAL_DATE_TIME ( #335, #3 ) ;
#9 = ADVANCED_FACE ( 'NONE', ( #250 ), #202, .F. ) ;
#10 = CARTESIAN_POINT ( 'NONE',  ( 5.379614771522000021E-16, -4.392788823085560068, -7.499999999993178790 ) ) ;
#11 = APPROVAL_STATUS ( 'not_yet_approved' ) ;
#12 = DIRECTION ( 'NONE',  ( -0.8660254037844388186, -0.4999999999999998335, 0.000000000000000000 ) ) ;
#13 = VECTOR ( 'NONE', #349, 1000.000000000000114 ) ;
#14 = LOCAL_TIME ( 17, 46, 45.00000000000000000, #146 ) ;
#15 = CARTESIAN_POINT ( 'NONE',  ( 0.000000000000000000, 0.000000000000000000, -7.499999999879491952 ) ) ;
#16 = APPROVAL_ROLE ( '' ) ;
#17 = DIRECTION ( 'NONE',  ( -1.000000000000000000, -0.000000000000000000, 0.000000000000000000 ) ) ;
#18 = COORDINATED_UNIVERSAL_TIME_OFFSET ( 6, 0, .BEHIND. ) ;
#19 = CARTESIAN_POINT ( 'NONE',  ( 2.944486372867091806, -5.551114999999999878E-16, 0.000000000000000000 ) ) ;
#20 = AXIS2_PLACEMENT_3D ( 'NONE', #343, #140, #314 ) ;
#21 = CARTESIAN_POINT ( 'NONE',  ( -2.944486372867090918, -2.770956114761071658E-16, -7.499999999999999112 ) ) ;
#22 = ORIENTED_EDGE ( 'NONE', *, *, #274, .T. ) ;
#23 = PLANE ( 'NONE',  #164 ) ;
#24 = EDGE_CURVE ( 'NONE', #25, #261, #323, .T. ) ;
#25 = VERTEX_POINT ( 'NONE', #201 ) ;
#26 = EDGE_CURVE ( 'NONE', #191, #129, #51, .T. ) ;
#27 = LINE ( 'NONE', #57, #293 ) ;
#28 = CARTESIAN_POINT ( 'NONE',  ( -2.721179999999999876E-16, 2.550000000000001155, 7.499999999999999112 ) ) ;
#29 = AXIS2_PLACEMENT_3D ( 'NONE', #15, #361, #44 ) ;
#30 = LINE ( 'NONE', #135, #266 ) ;
#31 = AXIS2_PLACEMENT_3D ( 'NONE', #195, #316, #163 ) ;
#32 = DIRECTION ( 'NONE',  ( 0.000000000000000000, -1.000000000000000000, 0.000000000000000000 ) ) ;
#33 = EDGE_CURVE ( 'NONE', #317, #374, #143, .T. ) ;
#34 = ORIENTED_EDGE ( 'NONE', *, *, #58, .T. ) ;
#35 = ORIENTED_EDGE ( 'NONE', *, *, #26, .F. ) ;
#36 = VERTEX_POINT ( 'NONE', #137 ) ;
#37 = LINE ( 'NONE', #294, #174 ) ;
#38 = EDGE_CURVE ( 'NONE', #161, #25, #27, .T. ) ;
#39 = DIRECTION ( 'NONE',  ( 0.4999999999999998890, 0.8660254037844387076, 0.000000000000000000 ) ) ;
#40 = EDGE_LOOP ( 'NONE', ( #35, #282, #117, #169 ) ) ;
#41 = DIRECTION ( 'NONE',  ( 0.000000000000000000, 0.000000000000000000, 1.000000000000000000 ) ) ;
#42 = CARTESIAN_POINT ( 'NONE',  ( 1.472243186433545903, 2.550000000000001599, -7.500000000000000888 ) ) ;
#43 = DATE_TIME_ROLE ( 'creation_date' ) ;
#44 = DIRECTION ( 'NONE',  ( 0.000000000000000000, 1.000000000000000000, 0.000000000000000000 ) ) ;
#45 = CARTESIAN_POINT ( 'NONE',  ( 1.472243186433545903, 2.550000000000001599, 7.499999999999999112 ) ) ;
#46 = PERSON_AND_ORGANIZATION ( #348, #88 ) ;
#47 = DIRECTION ( 'NONE',  ( 0.4999999999999995559, 0.8660254037844388186, 0.000000000000000000 ) ) ;
#48 = FACE_OUTER_BOUND ( 'NONE', #199, .T. ) ;
#49 = ORIENTED_EDGE ( 'NONE', *, *, #33, .F. ) ;
#50 = DIRECTION ( 'NONE',  ( 0.000000000000000000, 1.000000000000000000, 0.000000000000000000 ) ) ;
#51 = LINE ( 'NONE', #377, #130 ) ;
#52 = AXIS2_PLACEMENT_3D ( 'NONE', #100, #41, #326 ) ;
#53 = EDGE_CURVE ( 'NONE', #166, #86, #344, .T. ) ;
#54 = DIRECTION ( 'NONE',  ( 0.000000000000000000, 0.000000000000000000, 1.000000000000000000 ) ) ;
#55 = ORIENTED_EDGE ( 'NONE', *, *, #329, .F. ) ;
#56 = ORIENTED_EDGE ( 'NONE', *, *, #124, .F. ) ;
#57 = CARTESIAN_POINT ( 'NONE',  ( -2.944486372867090918, -2.770956114761070179E-16, 7.499999999999999112 ) ) ;
#58 = EDGE_CURVE ( 'NONE', #86, #166, #61, .T. ) ;
#59 = ORIENTED_EDGE ( 'NONE', *, *, #98, .F. ) ;
#60 = CARTESIAN_POINT ( 'NONE',  ( -2.721179999999999876E-16, 2.550000000000001155, -7.499999999999999112 ) ) ;
#61 = CIRCLE ( 'NONE', #276, 4.392788823085560068 ) ;
#62 = PERSON_AND_ORGANIZATION ( #348, #88 ) ;
#63 = CARTESIAN_POINT ( 'NONE',  ( -2.721179999999999876E-16, 0.000000000000000000, -7.499999999999999112 ) ) ;
#64 = VECTOR ( 'NONE', #271, 1000.000000000000000 ) ;
#65 = CALENDAR_DATE ( 2022, 18, 8 ) ;
#66 = CARTESIAN_POINT ( 'NONE',  ( 0.000000000000000000, 3.999999999997205347, 7.499999999993178790 ) ) ;
#67 = PERSON_AND_ORGANIZATION_ROLE ( 'design_owner' ) ;
#68 = ADVANCED_FACE ( 'NONE', ( #347 ), #255, .F. ) ;
#69 = DIRECTION ( 'NONE',  ( 1.000000000000000000, 0.000000000000000000, -0.000000000000000000 ) ) ;
#70 = PERSON_AND_ORGANIZATION ( #348, #88 ) ;
#71 = CARTESIAN_POINT ( 'NONE',  ( 1.472243186433545681, 2.550000000000001599, 7.500000000000000888 ) ) ;
#72 = ORIENTED_EDGE ( 'NONE', *, *, #124, .T. ) ;
#73 = CALENDAR_DATE ( 2022, 18, 8 ) ;
#74 = EDGE_LOOP ( 'NONE', ( #77, #107, #165, #217 ) ) ;
#75 = EDGE_CURVE ( 'NONE', #310, #86, #112, .T. ) ;
#76 = DIRECTION ( 'NONE',  ( 0.000000000000000000, -0.000000000000000000, 1.000000000000000000 ) ) ;
#77 = ORIENTED_EDGE ( 'NONE', *, *, #33, .T. ) ;
#78 = VECTOR ( 'NONE', #99, 1000.000000000000114 ) ;
#79 = PRODUCT_DEFINITION_FORMATION_WITH_SPECIFIED_SOURCE ( 'ANY', '', #230, .NOT_KNOWN. ) ;
#80 = EDGE_LOOP ( 'NONE', ( #337, #336, #4, #220 ) ) ;
#81 = ORIENTED_EDGE ( 'NONE', *, *, #299, .T. ) ;
#82 = VERTEX_POINT ( 'NONE', #5 ) ;
#83 = CARTESIAN_POINT ( 'NONE',  ( 0.000000000000000000, 4.392788823082582894, -7.499999999879491952 ) ) ;
#84 = CARTESIAN_POINT ( 'NONE',  ( 0.000000000000000000, 1.122380532322401207E-26, -7.499999999993178790 ) ) ;
#85 = CC_DESIGN_DATE_AND_TIME_ASSIGNMENT ( #181, #43, ( #134 ) ) ;
#86 = VERTEX_POINT ( 'NONE', #352 ) ;
#87 = VECTOR ( 'NONE', #125, 1000.000000000000000 ) ;
#88 = ORGANIZATION ( 'UNSPECIFIED', 'UNSPECIFIED', '' ) ;
#89 = DIRECTION ( 'NONE',  ( 0.000000000000000000, -0.000000000000000000, -1.000000000000000000 ) ) ;
#90 = LINE ( 'NONE', #292, #254 ) ;
#91 = DIRECTION ( 'NONE',  ( 0.8660254037844387076, -0.4999999999999998890, 0.000000000000000000 ) ) ;
#92 = SHAPE_DEFINITION_REPRESENTATION ( #260, #212 ) ;
#93 = CARTESIAN_POINT ( 'NONE',  ( -2.944486372867091362, -1.728520651214630202E-16, -7.500000000000001776 ) ) ;
#94 = VECTOR ( 'NONE', #257, 1000.000000000000114 ) ;
#95 = PERSON_AND_ORGANIZATION_ROLE ( 'creator' ) ;
#96 = CARTESIAN_POINT ( 'NONE',  ( -2.944486372867091806, 0.000000000000000000, 0.000000000000000000 ) ) ;
#97 = APPROVAL_DATE_TIME ( #206, #269 ) ;
#98 = EDGE_CURVE ( 'NONE', #36, #129, #162, .T. ) ;
#99 = DIRECTION ( 'NONE',  ( 0.4999999999999997224, -0.8660254037844387076, 0.000000000000000000 ) ) ;
#100 = CARTESIAN_POINT ( 'NONE',  ( 0.000000000000000000, 0.000000000000000000, 0.000000000000000000 ) ) ;
#101 = DIRECTION ( 'NONE',  ( -0.4999999999999998890, -0.8660254037844387076, 0.000000000000000000 ) ) ;
#102 = PERSON_AND_ORGANIZATION_ROLE ( 'classification_officer' ) ;
#103 = CARTESIAN_POINT ( 'NONE',  ( -1.472243186433545459, -2.550000000000000266, 7.499999999999999112 ) ) ;
#104 = EDGE_CURVE ( 'NONE', #295, #310, #188, .T. ) ;
#105 =( NAMED_UNIT ( * ) SI_UNIT ( $, .STERADIAN. ) SOLID_ANGLE_UNIT ( ) );
#106 = CARTESIAN_POINT ( 'NONE',  ( -2.944486372867091362, 4.336808689942017736E-16, 0.000000000000000000 ) ) ;
#107 = ORIENTED_EDGE ( 'NONE', *, *, #215, .F. ) ;
#108 = APPROVAL_PERSON_ORGANIZATION ( #296, #3, #264 ) ;
#109 = EDGE_LOOP ( 'NONE', ( #2, #155, #281, #56, #351, #59 ) ) ;
#110 = VERTEX_POINT ( 'NONE', #223 ) ;
#111 = CLOSED_SHELL ( 'NONE', ( #240, #193, #227, #375, #208, #334, #68, #159, #305, #9 ) ) ;
#112 = LINE ( 'NONE', #83, #94 ) ;
#113 = CARTESIAN_POINT ( 'NONE',  ( 1.472243186433546791, -2.549999999999999378, -7.500000000000000888 ) ) ;
#114 = DIRECTION ( 'NONE',  ( 0.000000000000000000, -0.000000000000000000, 1.000000000000000000 ) ) ;
#115 = EDGE_CURVE ( 'NONE', #295, #166, #116, .T. ) ;
#116 = LINE ( 'NONE', #284, #13 ) ;
#117 = ORIENTED_EDGE ( 'NONE', *, *, #299, .F. ) ;
#118 = CARTESIAN_POINT ( 'NONE',  ( 1.472243186433545903, 2.550000000000001599, -7.499999999999999112 ) ) ;
#119 = CARTESIAN_POINT ( 'NONE',  ( 2.944486372867091806, -3.610118033692623422E-16, 7.499999999999999112 ) ) ;
#120 = PERSON_AND_ORGANIZATION ( #348, #88 ) ;
#121 = VECTOR ( 'NONE', #47, 1000.000000000000227 ) ;
#122 = APPROVAL_PERSON_ORGANIZATION ( #70, #204, #210 ) ;
#123 = CARTESIAN_POINT ( 'NONE',  ( -2.721179999999999876E-16, -2.550000000000000266, 7.499999999999999112 ) ) ;
#124 = EDGE_CURVE ( 'NONE', #317, #247, #30, .T. ) ;
#125 = DIRECTION ( 'NONE',  ( -1.000000000000000000, -0.000000000000000000, 0.000000000000000000 ) ) ;
#126 = FACE_OUTER_BOUND ( 'NONE', #80, .T. ) ;
#127 = COORDINATED_UNIVERSAL_TIME_OFFSET ( 6, 0, .BEHIND. ) ;
#128 = LINE ( 'NONE', #369, #133 ) ;
#129 = VERTEX_POINT ( 'NONE', #113 ) ;
#130 = VECTOR ( 'NONE', #89, 1000.000000000000000 ) ;
#131 = DIRECTION ( 'NONE',  ( 1.000000000000000000, 0.000000000000000000, -0.000000000000000000 ) ) ;
#132 = LINE ( 'NONE', #106, #186 ) ;
#133 = VECTOR ( 'NONE', #76, 1000.000000000000000 ) ;
#134 = PRODUCT_DEFINITION ( 'UNKNOWN', '', #79, #248 ) ;
#135 = CARTESIAN_POINT ( 'NONE',  ( -1.472243186433545903, -2.550000000000000266, -7.499999999999999112 ) ) ;
#136 = CC_DESIGN_PERSON_AND_ORGANIZATION_ASSIGNMENT ( #239, #178, ( #134 ) ) ;
#137 = CARTESIAN_POINT ( 'NONE',  ( 2.944486372867091806, -4.308060268225320907E-16, -7.500000000000000888 ) ) ;
#138 = AXIS2_PLACEMENT_3D ( 'NONE', #207, #151, #101 ) ;
#139 = CARTESIAN_POINT ( 'NONE',  ( -1.472243186433546347, -2.550000000000001155, 0.000000000000000000 ) ) ;
#140 = DIRECTION ( 'NONE',  ( -0.000000000000000000, -9.872563568623174172E-17, 1.000000000000000000 ) ) ;
#141 = CC_DESIGN_PERSON_AND_ORGANIZATION_ASSIGNMENT ( #46, #102, ( #150 ) ) ;
#142 = ORIENTED_EDGE ( 'NONE', *, *, #24, .F. ) ;
#143 = LINE ( 'NONE', #139, #325 ) ;
#144 = CARTESIAN_POINT ( 'NONE',  ( 1.472243186433547013, -2.549999999999998934, 0.000000000000000000 ) ) ;
#145 = DIRECTION ( 'NONE',  ( 0.000000000000000000, 1.000000000000000000, 0.000000000000000000 ) ) ;
#146 = COORDINATED_UNIVERSAL_TIME_OFFSET ( 6, 0, .BEHIND. ) ;
#147 = CC_DESIGN_PERSON_AND_ORGANIZATION_ASSIGNMENT ( #62, #67, ( #230 ) ) ;
#148 = PLANE ( 'NONE',  #138 ) ;
#149 = DATE_TIME_ROLE ( 'classification_date' ) ;
#150 = SECURITY_CLASSIFICATION ( '', '', #262 ) ;
#151 = DIRECTION ( 'NONE',  ( -0.8660254037844387076, 0.4999999999999998890, 0.000000000000000000 ) ) ;
#152 = LINE ( 'NONE', #60, #64 ) ;
#153 = COORDINATED_UNIVERSAL_TIME_OFFSET ( 6, 0, .BEHIND. ) ;
#154 = ORIENTED_EDGE ( 'NONE', *, *, #345, .T. ) ;
#155 = ORIENTED_EDGE ( 'NONE', *, *, #274, .F. ) ;
#156 = PLANE ( 'NONE',  #198 ) ;
#157 = ORIENTED_EDGE ( 'NONE', *, *, #283, .F. ) ;
#158 = VECTOR ( 'NONE', #211, 1000.000000000000114 ) ;
#159 = ADVANCED_FACE ( 'NONE', ( #196 ), #148, .F. ) ;
#160 = EDGE_LOOP ( 'NONE', ( #6, #366, #353, #277 ) ) ;
#161 = VERTEX_POINT ( 'NONE', #363 ) ;
#162 = LINE ( 'NONE', #346, #309 ) ;
#163 = DIRECTION ( 'NONE',  ( 0.000000000000000000, 1.000000000000000000, 0.000000000000000000 ) ) ;
#164 = AXIS2_PLACEMENT_3D ( 'NONE', #19, #184, #273 ) ;
#165 = ORIENTED_EDGE ( 'NONE', *, *, #26, .T. ) ;
#166 = VERTEX_POINT ( 'NONE', #10 ) ;
#167 = ORIENTED_EDGE ( 'NONE', *, *, #283, .T. ) ;
#168 = EDGE_CURVE ( 'NONE', #110, #191, #203, .T. ) ;
#169 = ORIENTED_EDGE ( 'NONE', *, *, #98, .T. ) ;
#170 = DIRECTION ( 'NONE',  ( -0.000000000000000000, -9.872563568623174172E-17, 1.000000000000000000 ) ) ;
#171 = FACE_OUTER_BOUND ( 'NONE', #376, .T. ) ;
#172 = EDGE_LOOP ( 'NONE', ( #190, #313 ) ) ;
#173 = CALENDAR_DATE ( 2022, 18, 8 ) ;
#174 = VECTOR ( 'NONE', #17, 1000.000000000000000 ) ;
#175 = FACE_OUTER_BOUND ( 'NONE', #40, .T. ) ;
#176 = APPROVAL_STATUS ( 'not_yet_approved' ) ;
#177 = CARTESIAN_POINT ( 'NONE',  ( -1.472243186433545903, -2.550000000000000266, -7.500000000000001776 ) ) ;
#178 = PERSON_AND_ORGANIZATION_ROLE ( 'creator' ) ;
#179 = DIRECTION ( 'NONE',  ( 0.000000000000000000, 0.000000000000000000, 1.000000000000000000 ) ) ;
#180 = CC_DESIGN_PERSON_AND_ORGANIZATION_ASSIGNMENT ( #355, #364, ( #79 ) ) ;
#181 = DATE_AND_TIME ( #65, #233 ) ;
#182 = ORIENTED_EDGE ( 'NONE', *, *, #258, .F. ) ;
#183 = FACE_BOUND ( 'NONE', #320, .T. ) ;
#184 = DIRECTION ( 'NONE',  ( 0.8660254037844387076, 0.4999999999999998890, -0.000000000000000000 ) ) ;
#185 = CONICAL_SURFACE ( 'NONE', #29, 4.392788823082582894, 0.02617993874999583956 ) ;
#186 = VECTOR ( 'NONE', #244, 1000.000000000000000 ) ;
#187 = ORIENTED_EDGE ( 'NONE', *, *, #24, .T. ) ;
#188 = CIRCLE ( 'NONE', #31, 3.999999999997207123 ) ;
#189 = EDGE_CURVE ( 'NONE', #214, #36, #231, .T. ) ;
#190 = ORIENTED_EDGE ( 'NONE', *, *, #58, .F. ) ;
#191 = VERTEX_POINT ( 'NONE', #209 ) ;
#192 = ORIENTED_EDGE ( 'NONE', *, *, #359, .T. ) ;
#193 = ADVANCED_FACE ( 'NONE', ( #300 ), #185, .T. ) ;
#194 = DIRECTION ( 'NONE',  ( 0.000000000000000000, -0.000000000000000000, -1.000000000000000000 ) ) ;
#195 = CARTESIAN_POINT ( 'NONE',  ( 0.000000000000000000, -1.480884535280905566E-15, 7.499999999993178790 ) ) ;
#196 = FACE_OUTER_BOUND ( 'NONE', #160, .T. ) ;
#197 = AXIS2_PLACEMENT_3D ( 'NONE', #63, #179, #69 ) ;
#198 = AXIS2_PLACEMENT_3D ( 'NONE', #368, #246, #131 ) ;
#199 = EDGE_LOOP ( 'NONE', ( #81, #182, #157, #370 ) ) ;
#200 = EDGE_CURVE ( 'NONE', #310, #295, #371, .T. ) ;
#201 = CARTESIAN_POINT ( 'NONE',  ( -1.472243186433545903, 2.550000000000001155, 7.500000000000001776 ) ) ;
#202 = PLANE ( 'NONE',  #287 ) ;
#203 = LINE ( 'NONE', #119, #318 ) ;
#204 = APPROVAL ( #11, 'UNSPECIFIED' ) ;
#205 = LINE ( 'NONE', #21, #121 ) ;
#206 = DATE_AND_TIME ( #73, #372 ) ;
#207 = CARTESIAN_POINT ( 'NONE',  ( -1.472243186433545903, 2.550000000000001155, 0.000000000000000000 ) ) ;
#208 = ADVANCED_FACE ( 'NONE', ( #175 ), #297, .F. ) ;
#209 = CARTESIAN_POINT ( 'NONE',  ( 1.472243186433546791, -2.550000000000000266, 7.500000000000001776 ) ) ;
#210 = APPROVAL_ROLE ( '' ) ;
#211 = DIRECTION ( 'NONE',  ( 0.4999999999999997224, -0.8660254037844387076, 0.000000000000000000 ) ) ;
#212 = ADVANCED_BREP_SHAPE_REPRESENTATION ( 'REV-41-1323', ( #232, #52 ), #216 ) ;
#213 =( NAMED_UNIT ( * ) PLANE_ANGLE_UNIT ( ) SI_UNIT ( $, .RADIAN. ) );
#214 = VERTEX_POINT ( 'NONE', #42 ) ;
#215 = EDGE_CURVE ( 'NONE', #191, #374, #268, .T. ) ;
#216 =( GEOMETRIC_REPRESENTATION_CONTEXT ( 3 ) GLOBAL_UNCERTAINTY_ASSIGNED_CONTEXT ( ( #311 ) ) GLOBAL_UNIT_ASSIGNED_CONTEXT ( ( #339, #213, #105 ) ) REPRESENTATION_CONTEXT ( 'NONE', 'WORKASPACE' ) );
#217 = ORIENTED_EDGE ( 'NONE', *, *, #291, .T. ) ;
#218 = ORIENTED_EDGE ( 'NONE', *, *, #115, .F. ) ;
#219 = CARTESIAN_POINT ( 'NONE',  ( -1.472243186433543904, -2.549999999999999822, 0.000000000000000000 ) ) ;
#220 = ORIENTED_EDGE ( 'NONE', *, *, #75, .F. ) ;
#221 = VECTOR ( 'NONE', #324, 1000.000000000000000 ) ;
#222 = ORIENTED_EDGE ( 'NONE', *, *, #200, .F. ) ;
#223 = CARTESIAN_POINT ( 'NONE',  ( 2.944486372867091806, -5.735940757969592271E-16, 7.500000000000001776 ) ) ;
#224 = ORIENTED_EDGE ( 'NONE', *, *, #38, .T. ) ;
#225 = CARTESIAN_POINT ( 'NONE',  ( 1.472243186433545903, 2.550000000000002043, 0.000000000000000000 ) ) ;
#226 = EDGE_LOOP ( 'NONE', ( #222, #312 ) ) ;
#227 = ADVANCED_FACE ( 'NONE', ( #365, #333 ), #238, .F. ) ;
#228 = DIRECTION ( 'NONE',  ( 0.000000000000000000, 1.000000000000000000, 0.000000000000000000 ) ) ;
#229 = APPLICATION_PROTOCOL_DEFINITION ( 'international standard', 'config_control_design', 1994, #298 ) ;
#230 = PRODUCT ( 'REV-41-1323', 'REV-41-1323', '', ( #331 ) ) ;
#231 = LINE ( 'NONE', #118, #78 ) ;
#232 = MANIFOLD_SOLID_BREP ( 'Solid1', #111 ) ;
#233 = LOCAL_TIME ( 17, 46, 45.00000000000000000, #18 ) ;
#234 = PERSON_AND_ORGANIZATION ( #348, #88 ) ;
#235 = VECTOR ( 'NONE', #290, 1000.000000000000000 ) ;
#236 = DIRECTION ( 'NONE',  ( 0.000000000000000000, 0.000000000000000000, 1.000000000000000000 ) ) ;
#237 = DATE_AND_TIME ( #270, #358 ) ;
#238 = PLANE ( 'NONE',  #197 ) ;
#239 = PERSON_AND_ORGANIZATION ( #348, #88 ) ;
#240 = ADVANCED_FACE ( 'NONE', ( #126 ), #338, .T. ) ;
#241 = LINE ( 'NONE', #7, #221 ) ;
#242 = ORIENTED_EDGE ( 'NONE', *, *, #345, .F. ) ;
#243 = APPROVAL_STATUS ( 'not_yet_approved' ) ;
#244 = DIRECTION ( 'NONE',  ( 0.000000000000000000, 0.000000000000000000, 1.000000000000000000 ) ) ;
#245 = PRODUCT_RELATED_PRODUCT_CATEGORY ( 'detail', '', ( #230 ) ) ;
#246 = DIRECTION ( 'NONE',  ( 0.000000000000000000, 0.000000000000000000, 1.000000000000000000 ) ) ;
#247 = VERTEX_POINT ( 'NONE', #93 ) ;
#248 = DESIGN_CONTEXT ( 'detailed design', #298, 'design' ) ;
#249 = VECTOR ( 'NONE', #308, 1000.000000000000227 ) ;
#250 = FACE_OUTER_BOUND ( 'NONE', #74, .T. ) ;
#251 = DIRECTION ( 'NONE',  ( -0.5000000000000000000, -0.8660254037844385966, 0.000000000000000000 ) ) ;
#252 = AXIS2_PLACEMENT_3D ( 'NONE', #225, #50, #114 ) ;
#253 = DIRECTION ( 'NONE',  ( 0.000000000000000000, 1.000000000000000000, 1.974512713723296483E-16 ) ) ;
#254 = VECTOR ( 'NONE', #236, 1000.000000000000000 ) ;
#255 = PLANE ( 'NONE',  #252 ) ;
#256 = EDGE_LOOP ( 'NONE', ( #218, #342, #340, #34 ) ) ;
#257 = DIRECTION ( 'NONE',  ( 0.000000000000000000, 0.02617694827796439999, -0.9996573249763404112 ) ) ;
#258 = EDGE_CURVE ( 'NONE', #261, #110, #265, .T. ) ;
#259 = CARTESIAN_POINT ( 'NONE',  ( 5.139100984053996076E-16, -3.999999999997208899, 7.499999999993178790 ) ) ;
#260 = PRODUCT_DEFINITION_SHAPE ( 'NONE', 'NONE',  #134 ) ;
#261 = VERTEX_POINT ( 'NONE', #71 ) ;
#262 = SECURITY_CLASSIFICATION_LEVEL ( 'unclassified' ) ;
#263 = DIRECTION ( 'NONE',  ( 0.4999999999999997780, -0.8660254037844387076, 0.000000000000000000 ) ) ;
#264 = APPROVAL_ROLE ( '' ) ;
#265 = LINE ( 'NONE', #45, #158 ) ;
#266 = VECTOR ( 'NONE', #1, 1000.000000000000114 ) ;
#267 = CC_DESIGN_APPROVAL ( #204, ( #134 ) ) ;
#268 = LINE ( 'NONE', #123, #87 ) ;
#269 = APPROVAL ( #243, 'UNSPECIFIED' ) ;
#270 = CALENDAR_DATE ( 2022, 18, 8 ) ;
#271 = DIRECTION ( 'NONE',  ( 1.000000000000000000, 0.000000000000000000, -0.000000000000000000 ) ) ;
#272 = APPROVAL_DATE_TIME ( #367, #204 ) ;
#273 = DIRECTION ( 'NONE',  ( -0.4999999999999998890, 0.8660254037844387076, 0.000000000000000000 ) ) ;
#274 = EDGE_CURVE ( 'NONE', #82, #214, #152, .T. ) ;
#275 = LINE ( 'NONE', #103, #249 ) ;
#276 = AXIS2_PLACEMENT_3D ( 'NONE', #84, #170, #253 ) ;
#277 = ORIENTED_EDGE ( 'NONE', *, *, #321, .T. ) ;
#278 = AXIS2_PLACEMENT_3D ( 'NONE', #96, #12, #263 ) ;
#279 = FACE_OUTER_BOUND ( 'NONE', #226, .T. ) ;
#280 = ORIENTED_EDGE ( 'NONE', *, *, #258, .T. ) ;
#281 = ORIENTED_EDGE ( 'NONE', *, *, #321, .F. ) ;
#282 = ORIENTED_EDGE ( 'NONE', *, *, #168, .F. ) ;
#283 = EDGE_CURVE ( 'NONE', #214, #261, #90, .T. ) ;
#284 = CARTESIAN_POINT ( 'NONE',  ( 5.379614771518354498E-16, -4.392788823082582894, -7.499999999879491952 ) ) ;
#285 = AXIS2_PLACEMENT_3D ( 'NONE', #332, #327, #228 ) ;
#286 = CC_DESIGN_APPROVAL ( #269, ( #150 ) ) ;
#287 = AXIS2_PLACEMENT_3D ( 'NONE', #219, #32, #194 ) ;
#288 = DIRECTION ( 'NONE',  ( 0.4999999999999995559, 0.8660254037844388186, 0.000000000000000000 ) ) ;
#289 = ORIENTED_EDGE ( 'NONE', *, *, #215, .T. ) ;
#290 = DIRECTION ( 'NONE',  ( 1.000000000000000000, 0.000000000000000000, -0.000000000000000000 ) ) ;
#291 = EDGE_CURVE ( 'NONE', #129, #317, #37, .T. ) ;
#292 = CARTESIAN_POINT ( 'NONE',  ( 1.472243186433545459, 2.550000000000001599, 0.000000000000000000 ) ) ;
#293 = VECTOR ( 'NONE', #288, 1000.000000000000227 ) ;
#294 = CARTESIAN_POINT ( 'NONE',  ( -2.721179999999999876E-16, -2.549999999999999378, -7.499999999999999112 ) ) ;
#295 = VERTEX_POINT ( 'NONE', #259 ) ;
#296 = PERSON_AND_ORGANIZATION ( #348, #88 ) ;
#297 = PLANE ( 'NONE',  #357 ) ;
#298 = APPLICATION_CONTEXT ( 'configuration controlled 3d designs of mechanical parts and assemblies' ) ;
#299 = EDGE_CURVE ( 'NONE', #36, #110, #241, .T. ) ;
#300 = FACE_OUTER_BOUND ( 'NONE', #256, .T. ) ;
#301 = LOCAL_TIME ( 17, 46, 45.00000000000000000, #127 ) ;
#302 = DIRECTION ( 'NONE',  ( 0.000000000000000000, 9.872563568623174172E-17, -1.000000000000000000 ) ) ;
#303 = CARTESIAN_POINT ( 'NONE',  ( -1.472243186433545681, -2.550000000000000266, 7.500000000000001776 ) ) ;
#304 = CC_DESIGN_SECURITY_CLASSIFICATION ( #150, ( #79 ) ) ;
#305 = ADVANCED_FACE ( 'NONE', ( #171 ), #330, .F. ) ;
#306 = APPLICATION_PROTOCOL_DEFINITION ( 'international standard', 'config_control_design', 1994, #373 ) ;
#307 = EDGE_LOOP ( 'NONE', ( #167, #142, #55, #22 ) ) ;
#308 = DIRECTION ( 'NONE',  ( -0.4999999999999998890, 0.8660254037844385966, 0.000000000000000000 ) ) ;
#309 = VECTOR ( 'NONE', #251, 1000.000000000000227 ) ;
#310 = VERTEX_POINT ( 'NONE', #66 ) ;
#311 = UNCERTAINTY_MEASURE_WITH_UNIT (LENGTH_MEASURE( 1.000000000000000082E-05 ), #339, 'distance_accuracy_value', 'NONE');
#312 = ORIENTED_EDGE ( 'NONE', *, *, #104, .F. ) ;
#313 = ORIENTED_EDGE ( 'NONE', *, *, #53, .F. ) ;
#314 = DIRECTION ( 'NONE',  ( 0.000000000000000000, 1.000000000000000000, 1.974512713723296483E-16 ) ) ;
#315 = CC_DESIGN_DATE_AND_TIME_ASSIGNMENT ( #237, #149, ( #150 ) ) ;
#316 = DIRECTION ( 'NONE',  ( 0.000000000000000000, 9.872563568623174172E-17, -1.000000000000000000 ) ) ;
#317 = VERTEX_POINT ( 'NONE', #177 ) ;
#318 = VECTOR ( 'NONE', #354, 1000.000000000000114 ) ;
#319 = APPROVAL_PERSON_ORGANIZATION ( #234, #269, #16 ) ;
#320 = EDGE_LOOP ( 'NONE', ( #224, #187, #280, #322, #289, #154 ) ) ;
#321 = EDGE_CURVE ( 'NONE', #247, #82, #205, .T. ) ;
#322 = ORIENTED_EDGE ( 'NONE', *, *, #168, .T. ) ;
#323 = LINE ( 'NONE', #28, #235 ) ;
#324 = DIRECTION ( 'NONE',  ( -0.000000000000000000, 0.000000000000000000, 1.000000000000000000 ) ) ;
#325 = VECTOR ( 'NONE', #54, 1000.000000000000000 ) ;
#326 = DIRECTION ( 'NONE',  ( 1.000000000000000000, 0.000000000000000000, 0.000000000000000000 ) ) ;
#327 = DIRECTION ( 'NONE',  ( 0.000000000000000000, 9.872563568623174172E-17, -1.000000000000000000 ) ) ;
#328 = AXIS2_PLACEMENT_3D ( 'NONE', #356, #302, #145 ) ;
#329 = EDGE_CURVE ( 'NONE', #82, #25, #128, .T. ) ;
#330 = PLANE ( 'NONE',  #278 ) ;
#331 = MECHANICAL_CONTEXT ( 'NONE', #373, 'mechanical' ) ;
#332 = CARTESIAN_POINT ( 'NONE',  ( 0.000000000000000000, -1.480884535280905566E-15, 7.499999999993178790 ) ) ;
#333 = FACE_BOUND ( 'NONE', #109, .T. ) ;
#334 = ADVANCED_FACE ( 'NONE', ( #48 ), #23, .F. ) ;
#335 = DATE_AND_TIME ( #362, #301 ) ;
#336 = ORIENTED_EDGE ( 'NONE', *, *, #115, .T. ) ;
#337 = ORIENTED_EDGE ( 'NONE', *, *, #200, .T. ) ;
#338 = CONICAL_SURFACE ( 'NONE', #328, 4.392788823082582894, 0.02617993874999583956 ) ;
#339 =( LENGTH_UNIT ( ) NAMED_UNIT ( * ) SI_UNIT ( .MILLI., .METRE. ) );
#340 = ORIENTED_EDGE ( 'NONE', *, *, #75, .T. ) ;
#341 = CC_DESIGN_PERSON_AND_ORGANIZATION_ASSIGNMENT ( #120, #95, ( #79 ) ) ;
#342 = ORIENTED_EDGE ( 'NONE', *, *, #104, .T. ) ;
#343 = CARTESIAN_POINT ( 'NONE',  ( 0.000000000000000000, 1.122380532322401207E-26, -7.499999999993178790 ) ) ;
#344 = CIRCLE ( 'NONE', #20, 4.392788823085560068 ) ;
#345 = EDGE_CURVE ( 'NONE', #374, #161, #275, .T. ) ;
#346 = CARTESIAN_POINT ( 'NONE',  ( 2.944486372867091806, -3.610118033692622929E-16, -7.499999999999999112 ) ) ;
#347 = FACE_OUTER_BOUND ( 'NONE', #307, .T. ) ;
#348 = PERSON ( 'UNSPECIFIED', 'UNSPECIFIED', 'UNSPECIFIED', ('UNSPECIFIED'), ('UNSPECIFIED'), ('UNSPECIFIED') ) ;
#349 = DIRECTION ( 'NONE',  ( 3.205751592005480338E-18, -0.02617694827796420570, -0.9996573249763404112 ) ) ;
#350 = CC_DESIGN_APPROVAL ( #3, ( #79 ) ) ;
#351 = ORIENTED_EDGE ( 'NONE', *, *, #291, .F. ) ;
#352 = CARTESIAN_POINT ( 'NONE',  ( 0.000000000000000000, 4.392788823085560068, -7.499999999993178790 ) ) ;
#353 = ORIENTED_EDGE ( 'NONE', *, *, #359, .F. ) ;
#354 = DIRECTION ( 'NONE',  ( -0.4999999999999998890, -0.8660254037844387076, 0.000000000000000000 ) ) ;
#355 = PERSON_AND_ORGANIZATION ( #348, #88 ) ;
#356 = CARTESIAN_POINT ( 'NONE',  ( 0.000000000000000000, 0.000000000000000000, -7.499999999879491952 ) ) ;
#357 = AXIS2_PLACEMENT_3D ( 'NONE', #144, #91, #39 ) ;
#358 = LOCAL_TIME ( 17, 46, 45.00000000000000000, #153 ) ;
#359 = EDGE_CURVE ( 'NONE', #247, #161, #132, .T. ) ;
#360 = COORDINATED_UNIVERSAL_TIME_OFFSET ( 6, 0, .BEHIND. ) ;
#361 = DIRECTION ( 'NONE',  ( 0.000000000000000000, 9.872563568623174172E-17, -1.000000000000000000 ) ) ;
#362 = CALENDAR_DATE ( 2022, 18, 8 ) ;
#363 = CARTESIAN_POINT ( 'NONE',  ( -2.944486372867090918, -1.493783995161948024E-16, 7.500000000000004441 ) ) ;
#364 = PERSON_AND_ORGANIZATION_ROLE ( 'design_supplier' ) ;
#365 = FACE_OUTER_BOUND ( 'NONE', #172, .T. ) ;
#366 = ORIENTED_EDGE ( 'NONE', *, *, #38, .F. ) ;
#367 = DATE_AND_TIME ( #173, #14 ) ;
#368 = CARTESIAN_POINT ( 'NONE',  ( -2.721179999999999876E-16, 0.000000000000000000, 7.499999999999999112 ) ) ;
#369 = CARTESIAN_POINT ( 'NONE',  ( -1.472243186433545903, 2.550000000000002043, 0.000000000000000000 ) ) ;
#370 = ORIENTED_EDGE ( 'NONE', *, *, #189, .T. ) ;
#371 = CIRCLE ( 'NONE', #285, 3.999999999997207123 ) ;
#372 = LOCAL_TIME ( 17, 46, 45.00000000000000000, #360 ) ;
#373 = APPLICATION_CONTEXT ( 'configuration controlled 3d designs of mechanical parts and assemblies' ) ;
#374 = VERTEX_POINT ( 'NONE', #303 ) ;
#375 = ADVANCED_FACE ( 'NONE', ( #279, #183 ), #156, .T. ) ;
#376 = EDGE_LOOP ( 'NONE', ( #192, #242, #49, #72 ) ) ;
#377 = CARTESIAN_POINT ( 'NONE',  ( 1.472243186433546569, -2.549999999999999822, 0.000000000000000000 ) ) ;
ENDSEC;
END-ISO-10303-21;
