ISO-10303-21;
HEADER;
FILE_DESCRIPTION (( 'STEP AP203' ),
    '1' );
FILE_NAME ('REV-41-1324_Default.step',
    '2016-09-04T21:38:54',
    ( '' ),
    ( '' ),
    'SwSTEP 2.0',
    'SolidWorks 2015',
    '' );
FILE_SCHEMA (( 'CONFIG_CONTROL_DESIGN' ));
ENDSEC;

DATA;
#1 = SECURITY_CLASSIFICATION_LEVEL ( 'unclassified' ) ;
#2 = VECTOR ( 'NONE', #81, 39.37007874015748900 ) ;
#3 = EDGE_LOOP ( 'NONE', ( #292, #13, #97, #122 ) ) ;
#4 = CC_DESIGN_PERSON_AND_ORGANIZATION_ASSIGNMENT ( #273, #91, ( #333 ) ) ;
#5 = EDGE_LOOP ( 'NONE', ( #59, #136, #93, #173 ) ) ;
#6 = VERTEX_POINT ( 'NONE', #70 ) ;
#7 = CARTESIAN_POINT ( 'NONE',  ( -0.1159246603490980700, -1.120923622047244000E-017, 0.05905511811023622700 ) ) ;
#8 = FACE_OUTER_BOUND ( 'NONE', #319, .T. ) ;
#9 = ADVANCED_FACE ( 'NONE', ( #167 ), #71, .F. ) ;
#10 = DIRECTION ( 'NONE',  ( 0.0000000000000000000, 1.000000000000000000, 0.0000000000000000000 ) ) ;
#11 = DATE_AND_TIME ( #176, #203 ) ;
#12 = CARTESIAN_POINT ( 'NONE',  ( -0.1159246603490980700, -1.090927604236641800E-017, 0.05905511811023625400 ) ) ;
#13 = ORIENTED_EDGE ( 'NONE', *, *, #90, .T. ) ;
#14 = CARTESIAN_POINT ( 'NONE',  ( 0.05796233017454905500, 0.1003937007874016500, 0.05905511811023622700 ) ) ;
#15 = ORIENTED_EDGE ( 'NONE', *, *, #99, .F. ) ;
#16 = VERTEX_POINT ( 'NONE', #307 ) ;
#17 = AXIS2_PLACEMENT_3D ( 'NONE', #186, #250, #253 ) ;
#18 = DIRECTION ( 'NONE',  ( -0.4999999999999998300, -0.8660254037844386000, 0.0000000000000000000 ) ) ;
#19 = PRODUCT_DEFINITION_SHAPE ( 'NONE', 'NONE',  #268 ) ;
#20 = UNCERTAINTY_MEASURE_WITH_UNIT (LENGTH_MEASURE( 1.000000000000000100E-005 ), #239, 'distance_accuracy_value', 'NONE');
#21 = DIRECTION ( 'NONE',  ( -0.5000000000000001100, 0.8660254037844386000, 0.0000000000000000000 ) ) ;
#22 = FACE_BOUND ( 'NONE', #294, .T. ) ;
#23 = CARTESIAN_POINT ( 'NONE',  ( -0.1159246603490981100, 0.0000000000000000000, 0.0000000000000000000 ) ) ;
#24 = APPROVAL_ROLE ( '' ) ;
#25 = ORIENTED_EDGE ( 'NONE', *, *, #83, .F. ) ;
#26 = APPROVAL_STATUS ( 'not_yet_approved' ) ;
#27 = ORGANIZATION ( 'UNSPECIFIED', 'UNSPECIFIED', '' ) ;
#28 = DIRECTION ( 'NONE',  ( 0.0000000000000000000, 0.0000000000000000000, 1.000000000000000000 ) ) ;
#29 = SECURITY_CLASSIFICATION ( '', '', #1 ) ;
#30 = FACE_OUTER_BOUND ( 'NONE', #3, .T. ) ;
#31 = APPROVAL_ROLE ( '' ) ;
#32 = COORDINATED_UNIVERSAL_TIME_OFFSET ( 6, 0, .BEHIND. ) ;
#33 = LINE ( 'NONE', #288, #368 ) ;
#34 = VERTEX_POINT ( 'NONE', #335 ) ;
#35 = CALENDAR_DATE ( 2016, 4, 9 ) ;
#36 = ORIENTED_EDGE ( 'NONE', *, *, #126, .T. ) ;
#37 = PERSON_AND_ORGANIZATION ( #181, #27 ) ;
#38 = ORIENTED_EDGE ( 'NONE', *, *, #175, .T. ) ;
#39 = EDGE_LOOP ( 'NONE', ( #300, #120, #370, #36 ) ) ;
#40 = CARTESIAN_POINT ( 'NONE',  ( -0.05796233017454902000, -0.1003937007874015600, 0.05905511811023622700 ) ) ;
#41 = ADVANCED_FACE ( 'NONE', ( #178 ), #235, .T. ) ;
#42 = COORDINATED_UNIVERSAL_TIME_OFFSET ( 6, 0, .BEHIND. ) ;
#43 = CARTESIAN_POINT ( 'NONE',  ( 0.05796233017454905500, 0.1003937007874016500, 0.0000000000000000000 ) ) ;
#44 = DIRECTION ( 'NONE',  ( 0.0000000000000000000, 0.0000000000000000000, 1.000000000000000000 ) ) ;
#45 = CC_DESIGN_PERSON_AND_ORGANIZATION_ASSIGNMENT ( #105, #118, ( #29 ) ) ;
#46 = DIRECTION ( 'NONE',  ( -0.5000000000000001100, 0.8660254037844386000, 0.0000000000000000000 ) ) ;
#47 = PLANE ( 'NONE',  #144 ) ;
#48 = APPROVAL_DATE_TIME ( #11, #183 ) ;
#49 = CARTESIAN_POINT ( 'NONE',  ( 0.1159246603490981100, -1.059248818897637800E-017, 0.05905511811023622700 ) ) ;
#50 = CIRCLE ( 'NONE', #277, 0.1574803149605785700 ) ;
#51 = EDGE_LOOP ( 'NONE', ( #314, #340, #318, #98 ) ) ;
#52 = DIRECTION ( 'NONE',  ( -0.0000000000000000000, 0.0000000000000000000, 1.000000000000000000 ) ) ;
#53 = DIRECTION ( 'NONE',  ( 1.000000000000000000, 0.0000000000000000000, 0.0000000000000000000 ) ) ;
#54 = LINE ( 'NONE', #354, #205 ) ;
#55 = APPROVAL_ROLE ( '' ) ;
#56 = DIRECTION ( 'NONE',  ( -0.8660254037844388200, -0.4999999999999998300, 0.0000000000000000000 ) ) ;
#57 = AXIS2_PLACEMENT_3D ( 'NONE', #290, #232, #347 ) ;
#58 = LINE ( 'NONE', #76, #111 ) ;
#59 = ORIENTED_EDGE ( 'NONE', *, *, #99, .T. ) ;
#60 = EDGE_CURVE ( 'NONE', #343, #247, #50, .T. ) ;
#61 = DATE_AND_TIME ( #35, #180 ) ;
#62 = ORIENTED_EDGE ( 'NONE', *, *, #345, .F. ) ;
#63 = PRODUCT ( 'REV-41-1324_Default', 'REV-41-1324_Default', '', ( #323 ) ) ;
#64 = CC_DESIGN_DATE_AND_TIME_ASSIGNMENT ( #332, #244, ( #29 ) ) ;
#65 = VECTOR ( 'NONE', #18, 39.37007874015748900 ) ;
#66 = ORIENTED_EDGE ( 'NONE', *, *, #287, .F. ) ;
#67 = ORIENTED_EDGE ( 'NONE', *, *, #243, .T. ) ;
#68 = CARTESIAN_POINT ( 'NONE',  ( 0.0000000000000000000, 0.0000000000000000000, -0.05905511810436389600 ) ) ;
#69 = ADVANCED_FACE ( 'NONE', ( #217 ), #100, .F. ) ;
#70 = CARTESIAN_POINT ( 'NONE',  ( -0.05796233017454905500, 0.1003937007874016200, -0.05905511811023624000 ) ) ;
#71 = PLANE ( 'NONE',  #378 ) ;
#72 = CARTESIAN_POINT ( 'NONE',  ( -0.05796233017454905500, -0.1003937007874015900, -0.05905511811023624700 ) ) ;
#73 = LINE ( 'NONE', #132, #135 ) ;
#74 = CARTESIAN_POINT ( 'NONE',  ( 1.966453823453948900E-017, -0.1605731403391631200, -0.05905511810436389600 ) ) ;
#75 = ADVANCED_FACE ( 'NONE', ( #30 ), #216, .F. ) ;
#76 = CARTESIAN_POINT ( 'NONE',  ( -1.071330708661417400E-017, -0.1003937007874015600, 0.05905511811023622700 ) ) ;
#77 = DIRECTION ( 'NONE',  ( 0.0000000000000000000, 1.000000000000000000, 5.316595890296187700E-017 ) ) ;
#78 = ADVANCED_FACE ( 'NONE', ( #162 ), #229, .T. ) ;
#79 = ORIENTED_EDGE ( 'NONE', *, *, #175, .F. ) ;
#80 = EDGE_CURVE ( 'NONE', #95, #129, #246, .T. ) ;
#81 = DIRECTION ( 'NONE',  ( 0.4999999999999995600, 0.8660254037844388200, 0.0000000000000000000 ) ) ;
#82 = ORIENTED_EDGE ( 'NONE', *, *, #60, .F. ) ;
#83 = EDGE_CURVE ( 'NONE', #34, #89, #317, .T. ) ;
#84 = CARTESIAN_POINT ( 'NONE',  ( -0.05796233017454905500, 0.1003937007874016500, 0.0000000000000000000 ) ) ;
#85 = CARTESIAN_POINT ( 'NONE',  ( 1.947515729953998300E-017, -0.1574803149605785700, 0.05905511811107768500 ) ) ;
#86 = VECTOR ( 'NONE', #369, 39.37007874015748900 ) ;
#87 = DIRECTION ( 'NONE',  ( 0.0000000000000000000, 0.02617694827851422800, -0.9996573249763260900 ) ) ;
#88 = PERSON_AND_ORGANIZATION_ROLE ( 'creator' ) ;
#89 = VERTEX_POINT ( 'NONE', #72 ) ;
#90 = EDGE_CURVE ( 'NONE', #16, #379, #291, .T. ) ;
#91 = PERSON_AND_ORGANIZATION_ROLE ( 'design_supplier' ) ;
#92 = FACE_OUTER_BOUND ( 'NONE', #212, .T. ) ;
#93 = ORIENTED_EDGE ( 'NONE', *, *, #197, .F. ) ;
#94 = VECTOR ( 'NONE', #376, 39.37007874015748100 ) ;
#95 = VERTEX_POINT ( 'NONE', #12 ) ;
#96 = APPROVAL_PERSON_ORGANIZATION ( #170, #183, #31 ) ;
#97 = ORIENTED_EDGE ( 'NONE', *, *, #218, .F. ) ;
#98 = ORIENTED_EDGE ( 'NONE', *, *, #243, .F. ) ;
#99 = EDGE_CURVE ( 'NONE', #308, #34, #245, .T. ) ;
#100 = PLANE ( 'NONE',  #258 ) ;
#101 = PERSON_AND_ORGANIZATION ( #181, #27 ) ;
#102 = EDGE_CURVE ( 'NONE', #172, #95, #199, .T. ) ;
#103 = CARTESIAN_POINT ( 'NONE',  ( 0.05796233017454909700, -0.1003937007874015400, 0.0000000000000000000 ) ) ;
#104 = VECTOR ( 'NONE', #316, 39.37007874015748100 ) ;
#105 = PERSON_AND_ORGANIZATION ( #181, #27 ) ;
#106 = CARTESIAN_POINT ( 'NONE',  ( 0.1159246603490981100, -1.059248818897637800E-017, -0.05905511811023622700 ) ) ;
#107 = APPROVAL ( #202, 'UNSPECIFIED' ) ;
#108 = DIRECTION ( 'NONE',  ( 1.000000000000000000, 0.0000000000000000000, -0.0000000000000000000 ) ) ;
#109 = EDGE_CURVE ( 'NONE', #6, #16, #240, .T. ) ;
#110 = CARTESIAN_POINT ( 'NONE',  ( 0.0000000000000000000, 1.784725317555635500E-028, -0.05905511811107768500 ) ) ;
#111 = VECTOR ( 'NONE', #367, 39.37007874015748100 ) ;
#112 =( LENGTH_UNIT ( ) NAMED_UNIT ( * ) SI_UNIT ( $, .METRE. ) );
#113 = ORIENTED_EDGE ( 'NONE', *, *, #182, .F. ) ;
#114 = DIRECTION ( 'NONE',  ( 0.0000000000000000000, -0.0000000000000000000, -1.000000000000000000 ) ) ;
#115 = DIRECTION ( 'NONE',  ( 0.0000000000000000000, 1.000000000000000000, 0.0000000000000000000 ) ) ;
#116 = VECTOR ( 'NONE', #208, 39.37007874015748100 ) ;
#117 = CARTESIAN_POINT ( 'NONE',  ( 0.0000000000000000000, 0.1605731403393389200, -0.05905511811107768500 ) ) ;
#118 = PERSON_AND_ORGANIZATION_ROLE ( 'classification_officer' ) ;
#119 = AXIS2_PLACEMENT_3D ( 'NONE', #110, #196, #77 ) ;
#120 = ORIENTED_EDGE ( 'NONE', *, *, #60, .T. ) ;
#121 = EDGE_CURVE ( 'NONE', #343, #179, #261, .T. ) ;
#122 = ORIENTED_EDGE ( 'NONE', *, *, #321, .F. ) ;
#123 = COORDINATED_UNIVERSAL_TIME_OFFSET ( 6, 0, .BEHIND. ) ;
#124 = AXIS2_PLACEMENT_3D ( 'NONE', #68, #190, #341 ) ;
#125 = AXIS2_PLACEMENT_3D ( 'NONE', #234, #166, #53 ) ;
#126 = EDGE_CURVE ( 'NONE', #351, #179, #152, .T. ) ;
#127 = CALENDAR_DATE ( 2016, 4, 9 ) ;
#128 = CLOSED_SHELL ( 'NONE', ( #41, #78, #195, #157, #9, #224, #75, #69, #342, #281 ) ) ;
#129 = VERTEX_POINT ( 'NONE', #228 ) ;
#130 = CALENDAR_DATE ( 2016, 4, 9 ) ;
#131 = VECTOR ( 'NONE', #257, 39.37007874015748100 ) ;
#132 = CARTESIAN_POINT ( 'NONE',  ( -0.05796233017454902000, -0.1003937007874015600, -0.05905511811023622700 ) ) ;
#133 = CARTESIAN_POINT ( 'NONE',  ( -0.1159246603490980700, -1.120923622047244000E-017, -0.05905511811023622700 ) ) ;
#134 = CARTESIAN_POINT ( 'NONE',  ( 1.966453823456101900E-017, -0.1605731403393389200, -0.05905511811107768500 ) ) ;
#135 = VECTOR ( 'NONE', #46, 39.37007874015748900 ) ;
#136 = ORIENTED_EDGE ( 'NONE', *, *, #160, .F. ) ;
#137 = CARTESIAN_POINT ( 'NONE',  ( -1.071330708661417400E-017, 0.1003937007874016200, 0.05905511811023622700 ) ) ;
#138 = CARTESIAN_POINT ( 'NONE',  ( -0.1159246603490981100, -1.707404996040164500E-017, 0.0000000000000000000 ) ) ;
#139 = ORIENTED_EDGE ( 'NONE', *, *, #182, .T. ) ;
#140 = PERSON_AND_ORGANIZATION ( #181, #27 ) ;
#141 = PERSON_AND_ORGANIZATION_ROLE ( 'design_owner' ) ;
#142 = LINE ( 'NONE', #137, #131 ) ;
#143 = CARTESIAN_POINT ( 'NONE',  ( -0.1159246603490980700, -1.090927604236642400E-017, -0.05905511811023625400 ) ) ;
#144 = AXIS2_PLACEMENT_3D ( 'NONE', #194, #44, #255 ) ;
#145 = CARTESIAN_POINT ( 'NONE',  ( 0.0000000000000000000, 1.784725317555635500E-028, -0.05905511811107768500 ) ) ;
#146 = AXIS2_PLACEMENT_3D ( 'NONE', #349, #165, #371 ) ;
#147 = VECTOR ( 'NONE', #251, 39.37007874015748900 ) ;
#148 = ORIENTED_EDGE ( 'NONE', *, *, #90, .F. ) ;
#149 = ORIENTED_EDGE ( 'NONE', *, *, #302, .F. ) ;
#150 = LINE ( 'NONE', #138, #94 ) ;
#151 = CC_DESIGN_APPROVAL ( #365, ( #333 ) ) ;
#152 = CIRCLE ( 'NONE', #119, 0.1605731403393389200 ) ;
#153 = EDGE_LOOP ( 'NONE', ( #139, #282, #374, #66 ) ) ;
#154 = EDGE_CURVE ( 'NONE', #89, #301, #73, .T. ) ;
#155 = DIRECTION ( 'NONE',  ( 0.0000000000000000000, 2.658297945151004300E-017, -1.000000000000000000 ) ) ;
#156 = LOCAL_TIME ( 16, 38, 54.00000000000000000, #32 ) ;
#157 = ADVANCED_FACE ( 'NONE', ( #278, #92 ), #47, .F. ) ;
#158 = LINE ( 'NONE', #49, #86 ) ;
#159 = PLANE ( 'NONE',  #146 ) ;
#160 = EDGE_CURVE ( 'NONE', #241, #34, #33, .T. ) ;
#161 = CC_DESIGN_PERSON_AND_ORGANIZATION_ASSIGNMENT ( #101, #88, ( #333 ) ) ;
#162 = FACE_OUTER_BOUND ( 'NONE', #39, .T. ) ;
#163 = DIRECTION ( 'NONE',  ( 0.0000000000000000000, -0.0000000000000000000, -1.000000000000000000 ) ) ;
#164 = ORIENTED_EDGE ( 'NONE', *, *, #267, .T. ) ;
#165 = DIRECTION ( 'NONE',  ( 0.8660254037844387100, 0.4999999999999998900, -0.0000000000000000000 ) ) ;
#166 = DIRECTION ( 'NONE',  ( 0.0000000000000000000, 0.0000000000000000000, 1.000000000000000000 ) ) ;
#167 = FACE_OUTER_BOUND ( 'NONE', #5, .T. ) ;
#168 = PLANE ( 'NONE',  #227 ) ;
#169 = AXIS2_PLACEMENT_3D ( 'NONE', #23, #56, #298 ) ;
#170 = PERSON_AND_ORGANIZATION ( #181, #27 ) ;
#171 = CARTESIAN_POINT ( 'NONE',  ( 0.05796233017454905500, 0.1003937007874016500, -0.05905511811023622700 ) ) ;
#172 = VERTEX_POINT ( 'NONE', #344 ) ;
#173 = ORIENTED_EDGE ( 'NONE', *, *, #207, .F. ) ;
#174 = APPROVAL_STATUS ( 'not_yet_approved' ) ;
#175 = EDGE_CURVE ( 'NONE', #379, #211, #339, .T. ) ;
#176 = CALENDAR_DATE ( 2016, 4, 9 ) ;
#177 = EDGE_CURVE ( 'NONE', #241, #172, #58, .T. ) ;
#178 = FACE_OUTER_BOUND ( 'NONE', #359, .T. ) ;
#179 = VERTEX_POINT ( 'NONE', #134 ) ;
#180 = LOCAL_TIME ( 16, 38, 54.00000000000000000, #123 ) ;
#181 = PERSON ( 'UNSPECIFIED', 'UNSPECIFIED', 'UNSPECIFIED', ('UNSPECIFIED'), ('UNSPECIFIED'), ('UNSPECIFIED') ) ;
#182 = EDGE_CURVE ( 'NONE', #301, #6, #331, .T. ) ;
#183 = APPROVAL ( #174, 'UNSPECIFIED' ) ;
#184 = CARTESIAN_POINT ( 'NONE',  ( 0.0000000000000000000, -3.139721982328080900E-018, 0.05905511811107768500 ) ) ;
#185 = LENGTH_MEASURE_WITH_UNIT ( LENGTH_MEASURE( 0.02539999999999999900 ), #112 );
#186 = CARTESIAN_POINT ( 'NONE',  ( 0.0000000000000000000, 0.0000000000000000000, -0.05905511810436389600 ) ) ;
#187 = ORIENTED_EDGE ( 'NONE', *, *, #121, .T. ) ;
#188 = ORIENTED_EDGE ( 'NONE', *, *, #267, .F. ) ;
#189 = CARTESIAN_POINT ( 'NONE',  ( 0.05796233017454903400, 0.1003937007874016500, 0.0000000000000000000 ) ) ;
#190 = DIRECTION ( 'NONE',  ( 0.0000000000000000000, 2.658297945151004300E-017, -1.000000000000000000 ) ) ;
#191 = PERSON_AND_ORGANIZATION ( #181, #27 ) ;
#192 = DIRECTION ( 'NONE',  ( -1.000000000000000000, -0.0000000000000000000, 0.0000000000000000000 ) ) ;
#193 = CC_DESIGN_APPROVAL ( #107, ( #268 ) ) ;
#194 = CARTESIAN_POINT ( 'NONE',  ( -1.071330708661417400E-017, 0.0000000000000000000, -0.05905511811023622700 ) ) ;
#195 = ADVANCED_FACE ( 'NONE', ( #22, #8 ), #366, .T. ) ;
#196 = DIRECTION ( 'NONE',  ( -0.0000000000000000000, -2.658297945151004300E-017, 1.000000000000000000 ) ) ;
#197 = EDGE_CURVE ( 'NONE', #211, #241, #158, .T. ) ;
#198 = DIMENSIONAL_EXPONENTS ( 1.000000000000000000, 0.0000000000000000000, 0.0000000000000000000, 0.0000000000000000000, 0.0000000000000000000, 0.0000000000000000000, 0.0000000000000000000 ) ;
#199 = LINE ( 'NONE', #40, #270 ) ;
#200 = ORIENTED_EDGE ( 'NONE', *, *, #80, .T. ) ;
#201 = DIRECTION ( 'NONE',  ( 0.0000000000000000000, 1.000000000000000000, 5.316595890296187700E-017 ) ) ;
#202 = APPROVAL_STATUS ( 'not_yet_approved' ) ;
#203 = LOCAL_TIME ( 16, 38, 54.00000000000000000, #336 ) ;
#204 = DATE_TIME_ROLE ( 'creation_date' ) ;
#205 = VECTOR ( 'NONE', #87, 39.37007874015748100 ) ;
#206 = PLANE ( 'NONE',  #169 ) ;
#207 = EDGE_CURVE ( 'NONE', #308, #211, #322, .T. ) ;
#208 = DIRECTION ( 'NONE',  ( 0.4999999999999997200, -0.8660254037844388200, 0.0000000000000000000 ) ) ;
#209 = CC_DESIGN_APPROVAL ( #183, ( #29 ) ) ;
#210 = APPROVAL_PERSON_ORGANIZATION ( #353, #107, #24 ) ;
#211 = VERTEX_POINT ( 'NONE', #259 ) ;
#212 = EDGE_LOOP ( 'NONE', ( #360, #149 ) ) ;
#213 = LOCAL_TIME ( 16, 38, 54.00000000000000000, #312 ) ;
#214 = VECTOR ( 'NONE', #28, 39.37007874015748100 ) ;
#215 = CC_DESIGN_SECURITY_CLASSIFICATION ( #29, ( #333 ) ) ;
#216 = PLANE ( 'NONE',  #305 ) ;
#217 = FACE_OUTER_BOUND ( 'NONE', #153, .T. ) ;
#218 = EDGE_CURVE ( 'NONE', #129, #379, #142, .T. ) ;
#219 = ORIENTED_EDGE ( 'NONE', *, *, #177, .T. ) ;
#220 = DIRECTION ( 'NONE',  ( 0.0000000000000000000, 1.000000000000000000, -0.0000000000000000000 ) ) ;
#221 = ORIENTED_EDGE ( 'NONE', *, *, #154, .F. ) ;
#222 = APPROVAL_DATE_TIME ( #61, #107 ) ;
#223 = VECTOR ( 'NONE', #286, 39.37007874015748100 ) ;
#224 = ADVANCED_FACE ( 'NONE', ( #304 ), #159, .F. ) ;
#225 = DIRECTION ( 'NONE',  ( 3.205751592072823200E-018, -0.02617694827851417200, -0.9996573249763260900 ) ) ;
#226 = EDGE_CURVE ( 'NONE', #247, #351, #54, .T. ) ;
#227 = AXIS2_PLACEMENT_3D ( 'NONE', #377, #324, #114 ) ;
#228 = CARTESIAN_POINT ( 'NONE',  ( -0.05796233017454905500, 0.1003937007874016200, 0.05905511811023624700 ) ) ;
#229 = CONICAL_SURFACE ( 'NONE', #17, 0.1605731403391631200, 0.02617993875054592700 ) ;
#230 = ORIENTED_EDGE ( 'NONE', *, *, #345, .T. ) ;
#231 = ORIENTED_EDGE ( 'NONE', *, *, #302, .T. ) ;
#232 = DIRECTION ( 'NONE',  ( 0.0000000000000000000, 0.0000000000000000000, 1.000000000000000000 ) ) ;
#233 = DATE_AND_TIME ( #130, #213 ) ;
#234 = CARTESIAN_POINT ( 'NONE',  ( 0.0000000000000000000, 0.0000000000000000000, 0.0000000000000000000 ) ) ;
#235 = CONICAL_SURFACE ( 'NONE', #124, 0.1605731403391631200, 0.02617993875054592700 ) ;
#236 = PERSON_AND_ORGANIZATION_ROLE ( 'creator' ) ;
#237 = CARTESIAN_POINT ( 'NONE',  ( 0.05796233017454905500, 0.1003937007874016300, 0.05905511811023624000 ) ) ;
#238 = DIRECTION ( 'NONE',  ( 0.0000000000000000000, 0.0000000000000000000, 1.000000000000000000 ) ) ;
#239 =( CONVERSION_BASED_UNIT ( 'INCH', #185 ) LENGTH_UNIT ( ) NAMED_UNIT ( #198 ) );
#240 = LINE ( 'NONE', #364, #252 ) ;
#241 = VERTEX_POINT ( 'NONE', #297 ) ;
#242 = DESIGN_CONTEXT ( 'detailed design', #373, 'design' ) ;
#243 = EDGE_CURVE ( 'NONE', #89, #172, #357, .T. ) ;
#244 = DATE_TIME_ROLE ( 'classification_date' ) ;
#245 = LINE ( 'NONE', #106, #65 ) ;
#246 = LINE ( 'NONE', #7, #147 ) ;
#247 = VERTEX_POINT ( 'NONE', #266 ) ;
#248 = EDGE_LOOP ( 'NONE', ( #329, #67, #271, #299 ) ) ;
#249 = SHAPE_DEFINITION_REPRESENTATION ( #19, #328 ) ;
#250 = DIRECTION ( 'NONE',  ( 0.0000000000000000000, 2.658297945151004300E-017, -1.000000000000000000 ) ) ;
#251 = DIRECTION ( 'NONE',  ( 0.4999999999999995600, 0.8660254037844388200, 0.0000000000000000000 ) ) ;
#252 = VECTOR ( 'NONE', #108, 39.37007874015748100 ) ;
#253 = DIRECTION ( 'NONE',  ( 0.0000000000000000000, 1.000000000000000000, 0.0000000000000000000 ) ) ;
#254 = CALENDAR_DATE ( 2016, 4, 9 ) ;
#255 = DIRECTION ( 'NONE',  ( 1.000000000000000000, 0.0000000000000000000, -0.0000000000000000000 ) ) ;
#256 = ORIENTED_EDGE ( 'NONE', *, *, #109, .F. ) ;
#257 = DIRECTION ( 'NONE',  ( 1.000000000000000000, 0.0000000000000000000, -0.0000000000000000000 ) ) ;
#258 = AXIS2_PLACEMENT_3D ( 'NONE', #337, #361, #275 ) ;
#259 = CARTESIAN_POINT ( 'NONE',  ( 0.1159246603490981100, -1.421306312477410900E-017, 0.05905511811023625400 ) ) ;
#260 = CARTESIAN_POINT ( 'NONE',  ( -0.05796233017454906900, -0.1003937007874016200, 0.0000000000000000000 ) ) ;
#261 = LINE ( 'NONE', #74, #334 ) ;
#262 = ORIENTED_EDGE ( 'NONE', *, *, #207, .T. ) ;
#263 = DIRECTION ( 'NONE',  ( -0.0000000000000000000, -2.658297945151004300E-017, 1.000000000000000000 ) ) ;
#264 = VECTOR ( 'NONE', #238, 39.37007874015748100 ) ;
#265 = APPLICATION_CONTEXT ( 'configuration controlled 3d designs of mechanical parts and assemblies' ) ;
#266 = CARTESIAN_POINT ( 'NONE',  ( 0.0000000000000000000, 0.1574803149605785700, 0.05905511811107768500 ) ) ;
#267 = EDGE_CURVE ( 'NONE', #247, #343, #363, .T. ) ;
#268 = PRODUCT_DEFINITION ( 'UNKNOWN', '', #333, #242 ) ;
#269 = LINE ( 'NONE', #84, #264 ) ;
#270 = VECTOR ( 'NONE', #21, 39.37007874015748900 ) ;
#271 = ORIENTED_EDGE ( 'NONE', *, *, #177, .F. ) ;
#272 = MANIFOLD_SOLID_BREP ( 'Solid1', #128 ) ;
#273 = PERSON_AND_ORGANIZATION ( #181, #27 ) ;
#274 = AXIS2_PLACEMENT_3D ( 'NONE', #372, #293, #115 ) ;
#275 = DIRECTION ( 'NONE',  ( -0.4999999999999998300, -0.8660254037844386000, 0.0000000000000000000 ) ) ;
#276 = DATE_AND_TIME ( #254, #156 ) ;
#277 = AXIS2_PLACEMENT_3D ( 'NONE', #184, #155, #10 ) ;
#278 = FACE_BOUND ( 'NONE', #309, .T. ) ;
#279 = ORIENTED_EDGE ( 'NONE', *, *, #226, .F. ) ;
#280 = DIRECTION ( 'NONE',  ( 0.8660254037844387100, -0.4999999999999998900, 0.0000000000000000000 ) ) ;
#281 = ADVANCED_FACE ( 'NONE', ( #285 ), #168, .F. ) ;
#282 = ORIENTED_EDGE ( 'NONE', *, *, #321, .T. ) ;
#283 = LOCAL_TIME ( 16, 38, 54.00000000000000000, #42 ) ;
#284 = DIRECTION ( 'NONE',  ( 0.4999999999999998300, 0.8660254037844386000, 0.0000000000000000000 ) ) ;
#285 = FACE_OUTER_BOUND ( 'NONE', #248, .T. ) ;
#286 = DIRECTION ( 'NONE',  ( 0.0000000000000000000, 0.0000000000000000000, 1.000000000000000000 ) ) ;
#287 = EDGE_CURVE ( 'NONE', #301, #95, #150, .T. ) ;
#288 = CARTESIAN_POINT ( 'NONE',  ( 0.05796233017454908300, -0.1003937007874015600, 0.0000000000000000000 ) ) ;
#289 = CC_DESIGN_PERSON_AND_ORGANIZATION_ASSIGNMENT ( #140, #236, ( #268 ) ) ;
#290 = CARTESIAN_POINT ( 'NONE',  ( -1.071330708661417400E-017, 0.0000000000000000000, 0.05905511811023622700 ) ) ;
#291 = LINE ( 'NONE', #189, #223 ) ;
#292 = ORIENTED_EDGE ( 'NONE', *, *, #109, .T. ) ;
#293 = DIRECTION ( 'NONE',  ( 0.0000000000000000000, 2.658297945151004300E-017, -1.000000000000000000 ) ) ;
#294 = EDGE_LOOP ( 'NONE', ( #38, #356, #219, #310, #200, #380 ) ) ;
#295 =( NAMED_UNIT ( * ) PLANE_ANGLE_UNIT ( ) SI_UNIT ( $, .RADIAN. ) );
#296 = CIRCLE ( 'NONE', #358, 0.1605731403393389200 ) ;
#297 = CARTESIAN_POINT ( 'NONE',  ( 0.05796233017454909000, -0.1003937007874015900, 0.05905511811023624000 ) ) ;
#298 = DIRECTION ( 'NONE',  ( 0.4999999999999998300, -0.8660254037844388200, 0.0000000000000000000 ) ) ;
#299 = ORIENTED_EDGE ( 'NONE', *, *, #160, .T. ) ;
#300 = ORIENTED_EDGE ( 'NONE', *, *, #121, .F. ) ;
#301 = VERTEX_POINT ( 'NONE', #143 ) ;
#302 = EDGE_CURVE ( 'NONE', #179, #351, #296, .T. ) ;
#303 = LINE ( 'NONE', #171, #116 ) ;
#304 = FACE_OUTER_BOUND ( 'NONE', #355, .T. ) ;
#305 = AXIS2_PLACEMENT_3D ( 'NONE', #43, #220, #311 ) ;
#306 =( GEOMETRIC_REPRESENTATION_CONTEXT ( 3 ) GLOBAL_UNCERTAINTY_ASSIGNED_CONTEXT ( ( #20 ) ) GLOBAL_UNIT_ASSIGNED_CONTEXT ( ( #239, #295, #375 ) ) REPRESENTATION_CONTEXT ( 'NONE', 'WORKASPACE' ) );
#307 = CARTESIAN_POINT ( 'NONE',  ( 0.05796233017454905500, 0.1003937007874016300, -0.05905511811023624000 ) ) ;
#308 = VERTEX_POINT ( 'NONE', #327 ) ;
#309 = EDGE_LOOP ( 'NONE', ( #15, #62, #256, #113, #221, #25 ) ) ;
#310 = ORIENTED_EDGE ( 'NONE', *, *, #102, .T. ) ;
#311 = DIRECTION ( 'NONE',  ( 0.0000000000000000000, 0.0000000000000000000, 1.000000000000000000 ) ) ;
#312 = COORDINATED_UNIVERSAL_TIME_OFFSET ( 6, 0, .BEHIND. ) ;
#313 = VECTOR ( 'NONE', #52, 39.37007874015748100 ) ;
#314 = ORIENTED_EDGE ( 'NONE', *, *, #154, .T. ) ;
#315 = CC_DESIGN_DATE_AND_TIME_ASSIGNMENT ( #276, #204, ( #268 ) ) ;
#316 = DIRECTION ( 'NONE',  ( 0.4999999999999997200, -0.8660254037844388200, 0.0000000000000000000 ) ) ;
#317 = LINE ( 'NONE', #338, #350 ) ;
#318 = ORIENTED_EDGE ( 'NONE', *, *, #102, .F. ) ;
#319 = EDGE_LOOP ( 'NONE', ( #188, #82 ) ) ;
#320 = CARTESIAN_POINT ( 'NONE',  ( 0.1159246603490981000, 0.0000000000000000000, 0.0000000000000000000 ) ) ;
#321 = EDGE_CURVE ( 'NONE', #6, #129, #269, .T. ) ;
#322 = LINE ( 'NONE', #320, #313 ) ;
#323 = MECHANICAL_CONTEXT ( 'NONE', #265, 'mechanical' ) ;
#324 = DIRECTION ( 'NONE',  ( 0.0000000000000000000, -1.000000000000000000, 0.0000000000000000000 ) ) ;
#325 = APPLICATION_PROTOCOL_DEFINITION ( 'international standard', 'config_control_design', 1994, #373 ) ;
#326 = FACE_OUTER_BOUND ( 'NONE', #51, .T. ) ;
#327 = CARTESIAN_POINT ( 'NONE',  ( 0.1159246603490981100, -1.421306312477410600E-017, -0.05905511811023625400 ) ) ;
#328 = ADVANCED_BREP_SHAPE_REPRESENTATION ( 'REV-41-1324_Default', ( #272, #125 ), #306 ) ;
#329 = ORIENTED_EDGE ( 'NONE', *, *, #83, .T. ) ;
#330 = CC_DESIGN_PERSON_AND_ORGANIZATION_ASSIGNMENT ( #191, #141, ( #63 ) ) ;
#331 = LINE ( 'NONE', #133, #2 ) ;
#332 = DATE_AND_TIME ( #127, #283 ) ;
#333 = PRODUCT_DEFINITION_FORMATION_WITH_SPECIFIED_SOURCE ( 'ANY', '', #63, .NOT_KNOWN. ) ;
#334 = VECTOR ( 'NONE', #225, 39.37007874015748100 ) ;
#335 = CARTESIAN_POINT ( 'NONE',  ( 0.05796233017454909000, -0.1003937007874015500, -0.05905511811023624000 ) ) ;
#336 = COORDINATED_UNIVERSAL_TIME_OFFSET ( 6, 0, .BEHIND. ) ;
#337 = CARTESIAN_POINT ( 'NONE',  ( -0.05796233017454905500, 0.1003937007874016200, 0.0000000000000000000 ) ) ;
#338 = CARTESIAN_POINT ( 'NONE',  ( -1.071330708661417400E-017, -0.1003937007874015600, -0.05905511811023622700 ) ) ;
#339 = LINE ( 'NONE', #14, #104 ) ;
#340 = ORIENTED_EDGE ( 'NONE', *, *, #287, .T. ) ;
#341 = DIRECTION ( 'NONE',  ( 0.0000000000000000000, 1.000000000000000000, 0.0000000000000000000 ) ) ;
#342 = ADVANCED_FACE ( 'NONE', ( #326 ), #206, .F. ) ;
#343 = VERTEX_POINT ( 'NONE', #85 ) ;
#344 = CARTESIAN_POINT ( 'NONE',  ( -0.05796233017454903400, -0.1003937007874015900, 0.05905511811023624000 ) ) ;
#345 = EDGE_CURVE ( 'NONE', #16, #308, #303, .T. ) ;
#346 = PRODUCT_RELATED_PRODUCT_CATEGORY ( 'detail', '', ( #63 ) ) ;
#347 = DIRECTION ( 'NONE',  ( 1.000000000000000000, 0.0000000000000000000, -0.0000000000000000000 ) ) ;
#348 = APPROVAL_DATE_TIME ( #233, #365 ) ;
#349 = CARTESIAN_POINT ( 'NONE',  ( 0.1159246603490981100, -2.185478346456692900E-017, 0.0000000000000000000 ) ) ;
#350 = VECTOR ( 'NONE', #192, 39.37007874015748100 ) ;
#351 = VERTEX_POINT ( 'NONE', #117 ) ;
#352 = APPLICATION_PROTOCOL_DEFINITION ( 'international standard', 'config_control_design', 1994, #265 ) ;
#353 = PERSON_AND_ORGANIZATION ( #181, #27 ) ;
#354 = CARTESIAN_POINT ( 'NONE',  ( 0.0000000000000000000, 0.1605731403391631200, -0.05905511810436389600 ) ) ;
#355 = EDGE_LOOP ( 'NONE', ( #230, #262, #79, #148 ) ) ;
#356 = ORIENTED_EDGE ( 'NONE', *, *, #197, .T. ) ;
#357 = LINE ( 'NONE', #260, #214 ) ;
#358 = AXIS2_PLACEMENT_3D ( 'NONE', #145, #263, #201 ) ;
#359 = EDGE_LOOP ( 'NONE', ( #164, #187, #231, #279 ) ) ;
#360 = ORIENTED_EDGE ( 'NONE', *, *, #126, .F. ) ;
#361 = DIRECTION ( 'NONE',  ( -0.8660254037844387100, 0.4999999999999998900, 0.0000000000000000000 ) ) ;
#362 = APPROVAL_PERSON_ORGANIZATION ( #37, #365, #55 ) ;
#363 = CIRCLE ( 'NONE', #274, 0.1574803149605785700 ) ;
#364 = CARTESIAN_POINT ( 'NONE',  ( -1.071330708661417400E-017, 0.1003937007874016200, -0.05905511811023622700 ) ) ;
#365 = APPROVAL ( #26, 'UNSPECIFIED' ) ;
#366 = PLANE ( 'NONE',  #57 ) ;
#367 = DIRECTION ( 'NONE',  ( -1.000000000000000000, -0.0000000000000000000, 0.0000000000000000000 ) ) ;
#368 = VECTOR ( 'NONE', #163, 39.37007874015748100 ) ;
#369 = DIRECTION ( 'NONE',  ( -0.4999999999999998300, -0.8660254037844386000, 0.0000000000000000000 ) ) ;
#370 = ORIENTED_EDGE ( 'NONE', *, *, #226, .T. ) ;
#371 = DIRECTION ( 'NONE',  ( -0.4999999999999998300, 0.8660254037844386000, 0.0000000000000000000 ) ) ;
#372 = CARTESIAN_POINT ( 'NONE',  ( 0.0000000000000000000, -3.139721982328080900E-018, 0.05905511811107768500 ) ) ;
#373 = APPLICATION_CONTEXT ( 'configuration controlled 3d designs of mechanical parts and assemblies' ) ;
#374 = ORIENTED_EDGE ( 'NONE', *, *, #80, .F. ) ;
#375 =( NAMED_UNIT ( * ) SI_UNIT ( $, .STERADIAN. ) SOLID_ANGLE_UNIT ( ) );
#376 = DIRECTION ( 'NONE',  ( 0.0000000000000000000, 0.0000000000000000000, 1.000000000000000000 ) ) ;
#377 = CARTESIAN_POINT ( 'NONE',  ( -0.05796233017454897900, -0.1003937007874015600, 0.0000000000000000000 ) ) ;
#378 = AXIS2_PLACEMENT_3D ( 'NONE', #103, #280, #284 ) ;
#379 = VERTEX_POINT ( 'NONE', #237 ) ;
#380 = ORIENTED_EDGE ( 'NONE', *, *, #218, .T. ) ;
ENDSEC;
END-ISO-10303-21;
