ISO-10303-21;
HEADER;
FILE_DESCRIPTION (( 'STEP AP203' ),
    '1' );
FILE_NAME ('REV-41-1325_Default.step',
    '2016-09-04T21:38:59',
    ( '' ),
    ( '' ),
    'SwSTEP 2.0',
    'SolidWorks 2015',
    '' );
FILE_SCHEMA (( 'CONFIG_CONTROL_DESIGN' ));
ENDSEC;

DATA;
#1 = DIRECTION ( 'NONE',  ( 0.0000000000000000000, 1.000000000000000000, -0.0000000000000000000 ) ) ;
#2 = CC_DESIGN_PERSON_AND_ORGANIZATION_ASSIGNMENT ( #15, #175, ( #291 ) ) ;
#3 = EDGE_LOOP ( 'NONE', ( #183, #38, #120, #27 ) ) ;
#4 = LINE ( 'NONE', #281, #219 ) ;
#5 = DIRECTION ( 'NONE',  ( 0.0000000000000000000, 0.0000000000000000000, -1.000000000000000000 ) ) ;
#6 = DATE_AND_TIME ( #78, #349 ) ;
#7 = DIRECTION ( 'NONE',  ( 1.000000000000000000, 0.0000000000000000000, 0.0000000000000000000 ) ) ;
#8 = AXIS2_PLACEMENT_3D ( 'NONE', #29, #24, #112 ) ;
#9 = FACE_OUTER_BOUND ( 'NONE', #74, .T. ) ;
#10 = VECTOR ( 'NONE', #249, 39.37007874015748900 ) ;
#11 = MANIFOLD_SOLID_BREP ( 'Solid1', #256 ) ;
#12 = VERTEX_POINT ( 'NONE', #184 ) ;
#13 = VECTOR ( 'NONE', #251, 39.37007874015748100 ) ;
#14 = CC_DESIGN_APPROVAL ( #374, ( #291 ) ) ;
#15 = PERSON_AND_ORGANIZATION ( #327, #88 ) ;
#16 = ORIENTED_EDGE ( 'NONE', *, *, #179, .T. ) ;
#17 = DIRECTION ( 'NONE',  ( 0.0000000000000000000, 0.0000000000000000000, 1.000000000000000000 ) ) ;
#18 = DIRECTION ( 'NONE',  ( 0.8660254037844387100, 0.4999999999999998900, -0.0000000000000000000 ) ) ;
#19 = ADVANCED_FACE ( 'NONE', ( #31 ), #271, .F. ) ;
#20 = DIRECTION ( 'NONE',  ( 0.0000000000000000000, 0.0000000000000000000, 1.000000000000000000 ) ) ;
#21 = ORIENTED_EDGE ( 'NONE', *, *, #80, .T. ) ;
#22 = AXIS2_PLACEMENT_3D ( 'NONE', #350, #1, #282 ) ;
#23 = FACE_OUTER_BOUND ( 'NONE', #3, .T. ) ;
#24 = DIRECTION ( 'NONE',  ( -0.0000000000000000000, -0.0000000000000000000, 1.000000000000000000 ) ) ;
#25 = APPROVAL_PERSON_ORGANIZATION ( #177, #374, #355 ) ;
#26 = CARTESIAN_POINT ( 'NONE',  ( -0.05796233017454897900, -0.1003937007874015600, 0.0000000000000000000 ) ) ;
#27 = ORIENTED_EDGE ( 'NONE', *, *, #174, .T. ) ;
#28 = LINE ( 'NONE', #285, #69 ) ;
#29 = CARTESIAN_POINT ( 'NONE',  ( 0.0000000000000000000, 0.0000000000000000000, -0.02952755905441987700 ) ) ;
#30 = CARTESIAN_POINT ( 'NONE',  ( -0.1159246603490981100, -1.707404996040164500E-017, 0.0000000000000000000 ) ) ;
#31 = FACE_OUTER_BOUND ( 'NONE', #44, .T. ) ;
#32 = LINE ( 'NONE', #205, #323 ) ;
#33 = CARTESIAN_POINT ( 'NONE',  ( 0.05796233017454909700, -0.1003937007874015400, 0.0000000000000000000 ) ) ;
#34 = CC_DESIGN_PERSON_AND_ORGANIZATION_ASSIGNMENT ( #231, #119, ( #64 ) ) ;
#35 = ORIENTED_EDGE ( 'NONE', *, *, #99, .F. ) ;
#36 = DATE_TIME_ROLE ( 'classification_date' ) ;
#37 = APPROVAL_ROLE ( '' ) ;
#38 = ORIENTED_EDGE ( 'NONE', *, *, #127, .T. ) ;
#39 = FACE_OUTER_BOUND ( 'NONE', #340, .T. ) ;
#40 = EDGE_CURVE ( 'NONE', #178, #286, #298, .T. ) ;
#41 = AXIS2_PLACEMENT_3D ( 'NONE', #345, #360, #7 ) ;
#42 = PRODUCT ( 'REV-41-1325_Default', 'REV-41-1325_Default', '', ( #68 ) ) ;
#43 = ORIENTED_EDGE ( 'NONE', *, *, #212, .F. ) ;
#44 = EDGE_LOOP ( 'NONE', ( #325, #65, #116, #328 ) ) ;
#45 = DIRECTION ( 'NONE',  ( -0.4999999999999998300, 0.8660254037844386000, 0.0000000000000000000 ) ) ;
#46 = AXIS2_PLACEMENT_3D ( 'NONE', #225, #157, #132 ) ;
#47 = CARTESIAN_POINT ( 'NONE',  ( -0.1590267276497130100, 0.0000000000000000000, -0.02952755904770608700 ) ) ;
#48 = DIRECTION ( 'NONE',  ( -0.8660254037844388200, -0.4999999999999998300, 0.0000000000000000000 ) ) ;
#49 = EDGE_LOOP ( 'NONE', ( #73, #95, #336, #234 ) ) ;
#50 = ADVANCED_FACE ( 'NONE', ( #102 ), #273, .F. ) ;
#51 = VECTOR ( 'NONE', #344, 39.37007874015748900 ) ;
#52 = ORIENTED_EDGE ( 'NONE', *, *, #252, .F. ) ;
#53 = EDGE_LOOP ( 'NONE', ( #371, #16, #306, #114, #250, #204 ) ) ;
#54 = DIRECTION ( 'NONE',  ( 0.0000000000000000000, 0.0000000000000000000, 1.000000000000000000 ) ) ;
#55 = CC_DESIGN_SECURITY_CLASSIFICATION ( #64, ( #291 ) ) ;
#56 = APPROVAL_DATE_TIME ( #279, #316 ) ;
#57 = DIRECTION ( 'NONE',  ( 0.0000000000000000000, -0.0000000000000000000, -1.000000000000000000 ) ) ;
#58 = CARTESIAN_POINT ( 'NONE',  ( 0.05796233017454908300, -0.1003937007874015600, 0.0000000000000000000 ) ) ;
#59 = DIRECTION ( 'NONE',  ( -1.000000000000000000, 0.0000000000000000000, 0.0000000000000000000 ) ) ;
#60 = DIRECTION ( 'NONE',  ( 0.4999999999999995600, 0.8660254037844388200, 0.0000000000000000000 ) ) ;
#61 = FACE_OUTER_BOUND ( 'NONE', #192, .T. ) ;
#62 = PERSON_AND_ORGANIZATION ( #327, #88 ) ;
#63 =( LENGTH_UNIT ( ) NAMED_UNIT ( * ) SI_UNIT ( $, .METRE. ) );
#64 = SECURITY_CLASSIFICATION ( '', '', #297 ) ;
#65 = ORIENTED_EDGE ( 'NONE', *, *, #40, .T. ) ;
#66 = DIRECTION ( 'NONE',  ( 0.4999999999999995600, 0.8660254037844388200, 0.0000000000000000000 ) ) ;
#67 = VERTEX_POINT ( 'NONE', #218 ) ;
#68 = MECHANICAL_CONTEXT ( 'NONE', #324, 'mechanical' ) ;
#69 = VECTOR ( 'NONE', #66, 39.37007874015748900 ) ;
#70 = DATE_TIME_ROLE ( 'creation_date' ) ;
#71 = LINE ( 'NONE', #278, #200 ) ;
#72 = ORIENTED_EDGE ( 'NONE', *, *, #342, .F. ) ;
#73 = ORIENTED_EDGE ( 'NONE', *, *, #118, .T. ) ;
#74 = EDGE_LOOP ( 'NONE', ( #277, #72 ) ) ;
#75 = LINE ( 'NONE', #163, #377 ) ;
#76 = LINE ( 'NONE', #58, #13 ) ;
#77 = ADVANCED_FACE ( 'NONE', ( #153, #9 ), #337, .T. ) ;
#78 = CALENDAR_DATE ( 2016, 4, 9 ) ;
#79 = CARTESIAN_POINT ( 'NONE',  ( -0.05796233017454905500, -0.1003937007874015900, -0.02952755905511812400 ) ) ;
#80 = EDGE_CURVE ( 'NONE', #202, #353, #85, .T. ) ;
#81 = ORIENTED_EDGE ( 'NONE', *, *, #266, .F. ) ;
#82 = AXIS2_PLACEMENT_3D ( 'NONE', #257, #201, #203 ) ;
#83 = DIRECTION ( 'NONE',  ( 0.0000000000000000000, 0.0000000000000000000, -1.000000000000000000 ) ) ;
#84 = CARTESIAN_POINT ( 'NONE',  ( -0.1574803149605785700, 0.0000000000000000000, 0.02952755905441987700 ) ) ;
#85 = LINE ( 'NONE', #47, #301 ) ;
#86 = EDGE_CURVE ( 'NONE', #12, #155, #228, .T. ) ;
#87 = DIRECTION ( 'NONE',  ( -1.000000000000000000, 0.0000000000000000000, 0.0000000000000000000 ) ) ;
#88 = ORGANIZATION ( 'UNSPECIFIED', 'UNSPECIFIED', '' ) ;
#89 = PLANE ( 'NONE',  #22 ) ;
#90 = CARTESIAN_POINT ( 'NONE',  ( 0.05796233017454909000, -0.1003937007874015500, -0.02952755905511812000 ) ) ;
#91 = ORIENTED_EDGE ( 'NONE', *, *, #179, .F. ) ;
#92 =( NAMED_UNIT ( * ) PLANE_ANGLE_UNIT ( ) SI_UNIT ( $, .RADIAN. ) );
#93 = VECTOR ( 'NONE', #313, 39.37007874015748900 ) ;
#94 = DATE_AND_TIME ( #117, #190 ) ;
#95 = ORIENTED_EDGE ( 'NONE', *, *, #189, .T. ) ;
#96 = APPLICATION_PROTOCOL_DEFINITION ( 'international standard', 'config_control_design', 1994, #209 ) ;
#97 = PERSON_AND_ORGANIZATION ( #327, #88 ) ;
#98 = ORIENTED_EDGE ( 'NONE', *, *, #252, .T. ) ;
#99 = EDGE_CURVE ( 'NONE', #211, #129, #75, .T. ) ;
#100 = LINE ( 'NONE', #370, #121 ) ;
#101 = CC_DESIGN_DATE_AND_TIME_ASSIGNMENT ( #6, #36, ( #64 ) ) ;
#102 = FACE_OUTER_BOUND ( 'NONE', #315, .T. ) ;
#103 = CARTESIAN_POINT ( 'NONE',  ( 0.1159246603490981100, -2.185478346456692900E-017, 0.0000000000000000000 ) ) ;
#104 = AXIS2_PLACEMENT_3D ( 'NONE', #276, #136, #375 ) ;
#105 = COORDINATED_UNIVERSAL_TIME_OFFSET ( 6, 0, .BEHIND. ) ;
#106 = LINE ( 'NONE', #216, #210 ) ;
#107 = DIRECTION ( 'NONE',  ( -0.0000000000000000000, 0.0000000000000000000, 1.000000000000000000 ) ) ;
#108 = CARTESIAN_POINT ( 'NONE',  ( 0.0000000000000000000, 0.0000000000000000000, 0.02952755905441987700 ) ) ;
#109 = CALENDAR_DATE ( 2016, 4, 9 ) ;
#110 = CARTESIAN_POINT ( 'NONE',  ( 0.1159246603490981100, -1.421306312477410600E-017, -0.02952755905511812700 ) ) ;
#111 = VERTEX_POINT ( 'NONE', #113 ) ;
#112 = DIRECTION ( 'NONE',  ( -1.000000000000000000, 0.0000000000000000000, 0.0000000000000000000 ) ) ;
#113 = CARTESIAN_POINT ( 'NONE',  ( -0.1159246603490980700, -1.090927604236642400E-017, -0.02952755905511812700 ) ) ;
#114 = ORIENTED_EDGE ( 'NONE', *, *, #159, .T. ) ;
#115 = EDGE_CURVE ( 'NONE', #369, #199, #106, .T. ) ;
#116 = ORIENTED_EDGE ( 'NONE', *, *, #150, .F. ) ;
#117 = CALENDAR_DATE ( 2016, 4, 9 ) ;
#118 = EDGE_CURVE ( 'NONE', #202, #67, #243, .T. ) ;
#119 = PERSON_AND_ORGANIZATION_ROLE ( 'classification_officer' ) ;
#120 = ORIENTED_EDGE ( 'NONE', *, *, #217, .F. ) ;
#121 = VECTOR ( 'NONE', #311, 39.37007874015748100 ) ;
#122 = VERTEX_POINT ( 'NONE', #125 ) ;
#123 = PERSON_AND_ORGANIZATION ( #327, #88 ) ;
#124 = CARTESIAN_POINT ( 'NONE',  ( 0.1159246603490981000, 0.0000000000000000000, 0.0000000000000000000 ) ) ;
#125 = CARTESIAN_POINT ( 'NONE',  ( -0.05796233017454903400, -0.1003937007874015900, 0.02952755905511812000 ) ) ;
#126 = ORIENTED_EDGE ( 'NONE', *, *, #226, .T. ) ;
#127 = EDGE_CURVE ( 'NONE', #129, #122, #152, .T. ) ;
#128 = APPROVAL ( #171, 'UNSPECIFIED' ) ;
#129 = VERTEX_POINT ( 'NONE', #79 ) ;
#130 = DIRECTION ( 'NONE',  ( -0.02617694827832249200, 0.0000000000000000000, -0.9996573249763310900 ) ) ;
#131 = CIRCLE ( 'NONE', #8, 0.1590267276498888200 ) ;
#132 = DIRECTION ( 'NONE',  ( 1.000000000000000000, 0.0000000000000000000, -0.0000000000000000000 ) ) ;
#133 = DATE_AND_TIME ( #326, #264 ) ;
#134 = DIRECTION ( 'NONE',  ( 0.02617694827832249200, 3.205751592049345700E-018, -0.9996573249763310900 ) ) ;
#135 = AXIS2_PLACEMENT_3D ( 'NONE', #255, #137, #380 ) ;
#136 = DIRECTION ( 'NONE',  ( -0.8660254037844387100, 0.4999999999999998900, 0.0000000000000000000 ) ) ;
#137 = DIRECTION ( 'NONE',  ( 0.0000000000000000000, 0.0000000000000000000, -1.000000000000000000 ) ) ;
#138 = LINE ( 'NONE', #222, #10 ) ;
#139 =( CONVERSION_BASED_UNIT ( 'INCH', #258 ) LENGTH_UNIT ( ) NAMED_UNIT ( #187 ) );
#140 = CARTESIAN_POINT ( 'NONE',  ( -0.1159246603490980700, -1.090927604236641800E-017, 0.02952755905511812700 ) ) ;
#141 = DIRECTION ( 'NONE',  ( -0.5000000000000001100, 0.8660254037844386000, 0.0000000000000000000 ) ) ;
#142 = ORIENTED_EDGE ( 'NONE', *, *, #342, .T. ) ;
#143 = LINE ( 'NONE', #259, #368 ) ;
#144 = EDGE_CURVE ( 'NONE', #155, #199, #100, .T. ) ;
#145 = SHAPE_DEFINITION_REPRESENTATION ( #180, #294 ) ;
#146 = VECTOR ( 'NONE', #17, 39.37007874015748100 ) ;
#147 = APPROVAL_ROLE ( '' ) ;
#148 = FACE_OUTER_BOUND ( 'NONE', #49, .T. ) ;
#149 = EDGE_LOOP ( 'NONE', ( #351, #213, #81, #304 ) ) ;
#150 = EDGE_CURVE ( 'NONE', #199, #286, #71, .T. ) ;
#151 = PRODUCT_RELATED_PRODUCT_CATEGORY ( 'detail', '', ( #42 ) ) ;
#152 = LINE ( 'NONE', #197, #329 ) ;
#153 = FACE_BOUND ( 'NONE', #53, .T. ) ;
#154 = AXIS2_PLACEMENT_3D ( 'NONE', #33, #169, #319 ) ;
#155 = VERTEX_POINT ( 'NONE', #227 ) ;
#156 = CONICAL_SURFACE ( 'NONE', #135, 0.1590267276497130100, 0.02617993875035415400 ) ;
#157 = DIRECTION ( 'NONE',  ( 0.0000000000000000000, 0.0000000000000000000, 1.000000000000000000 ) ) ;
#158 = DATE_AND_TIME ( #109, #300 ) ;
#159 = EDGE_CURVE ( 'NONE', #122, #260, #138, .T. ) ;
#160 = PLANE ( 'NONE',  #312 ) ;
#161 = VERTEX_POINT ( 'NONE', #274 ) ;
#162 = DIRECTION ( 'NONE',  ( 0.4999999999999997200, -0.8660254037844388200, 0.0000000000000000000 ) ) ;
#163 = CARTESIAN_POINT ( 'NONE',  ( -1.071330708661417400E-017, -0.1003937007874015600, -0.02952755905511811300 ) ) ;
#164 = FACE_OUTER_BOUND ( 'NONE', #238, .T. ) ;
#165 = APPROVAL_PERSON_ORGANIZATION ( #97, #128, #147 ) ;
#166 = DIRECTION ( 'NONE',  ( -1.000000000000000000, -0.0000000000000000000, 0.0000000000000000000 ) ) ;
#167 = ORIENTED_EDGE ( 'NONE', *, *, #168, .T. ) ;
#168 = EDGE_CURVE ( 'NONE', #353, #161, #131, .T. ) ;
#169 = DIRECTION ( 'NONE',  ( 0.8660254037844387100, -0.4999999999999998900, 0.0000000000000000000 ) ) ;
#170 = CARTESIAN_POINT ( 'NONE',  ( 0.0000000000000000000, 0.0000000000000000000, -0.02952755904770608700 ) ) ;
#171 = APPROVAL_STATUS ( 'not_yet_approved' ) ;
#172 = ORIENTED_EDGE ( 'NONE', *, *, #189, .F. ) ;
#173 = APPROVAL_STATUS ( 'not_yet_approved' ) ;
#174 = EDGE_CURVE ( 'NONE', #246, #211, #76, .T. ) ;
#175 = PERSON_AND_ORGANIZATION_ROLE ( 'creator' ) ;
#176 = ORIENTED_EDGE ( 'NONE', *, *, #366, .F. ) ;
#177 = PERSON_AND_ORGANIZATION ( #327, #88 ) ;
#178 = VERTEX_POINT ( 'NONE', #110 ) ;
#179 = EDGE_CURVE ( 'NONE', #286, #246, #247, .T. ) ;
#180 = PRODUCT_DEFINITION_SHAPE ( 'NONE', 'NONE',  #354 ) ;
#181 = CARTESIAN_POINT ( 'NONE',  ( -0.05796233017454905500, 0.1003937007874016500, 0.0000000000000000000 ) ) ;
#182 = ADVANCED_FACE ( 'NONE', ( #284 ), #309, .F. ) ;
#183 = ORIENTED_EDGE ( 'NONE', *, *, #99, .T. ) ;
#184 = CARTESIAN_POINT ( 'NONE',  ( -0.05796233017454905500, 0.1003937007874016200, -0.02952755905511812000 ) ) ;
#185 = ADVANCED_FACE ( 'NONE', ( #379, #61 ), #307, .F. ) ;
#186 = ADVANCED_FACE ( 'NONE', ( #23 ), #160, .F. ) ;
#187 = DIMENSIONAL_EXPONENTS ( 1.000000000000000000, 0.0000000000000000000, 0.0000000000000000000, 0.0000000000000000000, 0.0000000000000000000, 0.0000000000000000000, 0.0000000000000000000 ) ;
#188 = APPROVAL_DATE_TIME ( #158, #128 ) ;
#189 = EDGE_CURVE ( 'NONE', #67, #161, #4, .T. ) ;
#190 = LOCAL_TIME ( 16, 38, 59.00000000000000000, #265 ) ;
#191 = CARTESIAN_POINT ( 'NONE',  ( 0.05796233017454905500, 0.1003937007874016300, 0.02952755905511812000 ) ) ;
#192 = EDGE_LOOP ( 'NONE', ( #261, #176 ) ) ;
#193 = DIRECTION ( 'NONE',  ( -1.000000000000000000, -0.0000000000000000000, 0.0000000000000000000 ) ) ;
#194 = COORDINATED_UNIVERSAL_TIME_OFFSET ( 6, 0, .BEHIND. ) ;
#195 = UNCERTAINTY_MEASURE_WITH_UNIT (LENGTH_MEASURE( 1.000000000000000100E-005 ), #139, 'distance_accuracy_value', 'NONE');
#196 = EDGE_CURVE ( 'NONE', #369, #178, #239, .T. ) ;
#197 = CARTESIAN_POINT ( 'NONE',  ( -0.05796233017454906900, -0.1003937007874016200, 0.0000000000000000000 ) ) ;
#198 = CARTESIAN_POINT ( 'NONE',  ( 0.1159246603490981100, -1.421306312477410900E-017, 0.02952755905511812700 ) ) ;
#199 = VERTEX_POINT ( 'NONE', #191 ) ;
#200 = VECTOR ( 'NONE', #305, 39.37007874015748100 ) ;
#201 = DIRECTION ( 'NONE',  ( -0.0000000000000000000, -0.0000000000000000000, 1.000000000000000000 ) ) ;
#202 = VERTEX_POINT ( 'NONE', #84 ) ;
#203 = DIRECTION ( 'NONE',  ( -1.000000000000000000, 0.0000000000000000000, 0.0000000000000000000 ) ) ;
#204 = ORIENTED_EDGE ( 'NONE', *, *, #144, .T. ) ;
#205 = CARTESIAN_POINT ( 'NONE',  ( -1.071330708661417400E-017, -0.1003937007874015600, 0.02952755905511811300 ) ) ;
#206 = APPROVAL_PERSON_ORGANIZATION ( #356, #316, #37 ) ;
#207 = AXIS2_PLACEMENT_3D ( 'NONE', #333, #20, #367 ) ;
#208 = APPLICATION_PROTOCOL_DEFINITION ( 'international standard', 'config_control_design', 1994, #324 ) ;
#209 = APPLICATION_CONTEXT ( 'configuration controlled 3d designs of mechanical parts and assemblies' ) ;
#210 = VECTOR ( 'NONE', #339, 39.37007874015748100 ) ;
#211 = VERTEX_POINT ( 'NONE', #90 ) ;
#212 = EDGE_CURVE ( 'NONE', #178, #211, #347, .T. ) ;
#213 = ORIENTED_EDGE ( 'NONE', *, *, #86, .T. ) ;
#214 = CC_DESIGN_APPROVAL ( #128, ( #64 ) ) ;
#215 = LINE ( 'NONE', #348, #299 ) ;
#216 = CARTESIAN_POINT ( 'NONE',  ( 0.05796233017454903400, 0.1003937007874016500, 0.0000000000000000000 ) ) ;
#217 = EDGE_CURVE ( 'NONE', #246, #122, #32, .T. ) ;
#218 = CARTESIAN_POINT ( 'NONE',  ( 0.1574803149605785700, 1.938046683202519000E-017, 0.02952755905441987700 ) ) ;
#219 = VECTOR ( 'NONE', #134, 39.37007874015748100 ) ;
#220 = ADVANCED_FACE ( 'NONE', ( #236 ), #290, .F. ) ;
#221 = EDGE_LOOP ( 'NONE', ( #43, #320, #331, #346, #52, #35 ) ) ;
#222 = CARTESIAN_POINT ( 'NONE',  ( -0.05796233017454902000, -0.1003937007874015600, 0.02952755905511811300 ) ) ;
#223 = ORIENTED_EDGE ( 'NONE', *, *, #159, .F. ) ;
#224 = LINE ( 'NONE', #230, #292 ) ;
#225 = CARTESIAN_POINT ( 'NONE',  ( -1.071330708661417400E-017, 0.0000000000000000000, -0.02952755905511811300 ) ) ;
#226 = EDGE_CURVE ( 'NONE', #111, #260, #229, .T. ) ;
#227 = CARTESIAN_POINT ( 'NONE',  ( -0.05796233017454905500, 0.1003937007874016200, 0.02952755905511812400 ) ) ;
#228 = LINE ( 'NONE', #181, #146 ) ;
#229 = LINE ( 'NONE', #30, #318 ) ;
#230 = CARTESIAN_POINT ( 'NONE',  ( -0.05796233017454902000, -0.1003937007874015600, -0.02952755905511811300 ) ) ;
#231 = PERSON_AND_ORGANIZATION ( #327, #88 ) ;
#232 = CARTESIAN_POINT ( 'NONE',  ( 0.0000000000000000000, 0.0000000000000000000, 0.02952755905441987700 ) ) ;
#233 = CARTESIAN_POINT ( 'NONE',  ( 0.05796233017454909000, -0.1003937007874015900, 0.02952755905511812000 ) ) ;
#234 = ORIENTED_EDGE ( 'NONE', *, *, #80, .F. ) ;
#235 = ORIENTED_EDGE ( 'NONE', *, *, #248, .T. ) ;
#236 = FACE_OUTER_BOUND ( 'NONE', #254, .T. ) ;
#237 =( GEOMETRIC_REPRESENTATION_CONTEXT ( 3 ) GLOBAL_UNCERTAINTY_ASSIGNED_CONTEXT ( ( #195 ) ) GLOBAL_UNIT_ASSIGNED_CONTEXT ( ( #139, #92, #287 ) ) REPRESENTATION_CONTEXT ( 'NONE', 'WORKASPACE' ) );
#238 = EDGE_LOOP ( 'NONE', ( #235, #275, #310, #362 ) ) ;
#239 = LINE ( 'NONE', #343, #359 ) ;
#240 = COORDINATED_UNIVERSAL_TIME_OFFSET ( 6, 0, .BEHIND. ) ;
#241 = AXIS2_PLACEMENT_3D ( 'NONE', #103, #18, #45 ) ;
#242 = ORIENTED_EDGE ( 'NONE', *, *, #212, .T. ) ;
#243 = CIRCLE ( 'NONE', #321, 0.1574803149605785700 ) ;
#244 = ORIENTED_EDGE ( 'NONE', *, *, #174, .F. ) ;
#245 = APPROVAL_DATE_TIME ( #133, #374 ) ;
#246 = VERTEX_POINT ( 'NONE', #233 ) ;
#247 = LINE ( 'NONE', #341, #51 ) ;
#248 = EDGE_CURVE ( 'NONE', #12, #369, #143, .T. ) ;
#249 = DIRECTION ( 'NONE',  ( -0.5000000000000001100, 0.8660254037844386000, 0.0000000000000000000 ) ) ;
#250 = ORIENTED_EDGE ( 'NONE', *, *, #266, .T. ) ;
#251 = DIRECTION ( 'NONE',  ( 0.0000000000000000000, -0.0000000000000000000, -1.000000000000000000 ) ) ;
#252 = EDGE_CURVE ( 'NONE', #129, #111, #224, .T. ) ;
#253 = DIRECTION ( 'NONE',  ( 0.0000000000000000000, 0.0000000000000000000, -1.000000000000000000 ) ) ;
#254 = EDGE_LOOP ( 'NONE', ( #242, #244, #91, #288 ) ) ;
#255 = CARTESIAN_POINT ( 'NONE',  ( 0.0000000000000000000, 0.0000000000000000000, -0.02952755904770608700 ) ) ;
#256 = CLOSED_SHELL ( 'NONE', ( #335, #302, #77, #185, #220, #19, #365, #182, #50, #186 ) ) ;
#257 = CARTESIAN_POINT ( 'NONE',  ( 0.0000000000000000000, 0.0000000000000000000, -0.02952755905441987700 ) ) ;
#258 = LENGTH_MEASURE_WITH_UNIT ( LENGTH_MEASURE( 0.02539999999999999900 ), #63 );
#259 = CARTESIAN_POINT ( 'NONE',  ( -1.071330708661417400E-017, 0.1003937007874016200, -0.02952755905511811300 ) ) ;
#260 = VERTEX_POINT ( 'NONE', #140 ) ;
#261 = ORIENTED_EDGE ( 'NONE', *, *, #168, .F. ) ;
#262 = PERSON_AND_ORGANIZATION_ROLE ( 'design_owner' ) ;
#263 = CIRCLE ( 'NONE', #82, 0.1590267276498888200 ) ;
#264 = LOCAL_TIME ( 16, 38, 59.00000000000000000, #105 ) ;
#265 = COORDINATED_UNIVERSAL_TIME_OFFSET ( 6, 0, .BEHIND. ) ;
#266 = EDGE_CURVE ( 'NONE', #260, #155, #215, .T. ) ;
#267 = CC_DESIGN_PERSON_AND_ORGANIZATION_ASSIGNMENT ( #123, #357, ( #354 ) ) ;
#268 = VECTOR ( 'NONE', #107, 39.37007874015748100 ) ;
#269 = DIRECTION ( 'NONE',  ( 0.4999999999999998300, -0.8660254037844388200, 0.0000000000000000000 ) ) ;
#270 = LOCAL_TIME ( 16, 38, 59.00000000000000000, #194 ) ;
#271 = PLANE ( 'NONE',  #241 ) ;
#272 = CIRCLE ( 'NONE', #358, 0.1574803149605785700 ) ;
#273 = PLANE ( 'NONE',  #280 ) ;
#274 = CARTESIAN_POINT ( 'NONE',  ( 0.1590267276498888200, 1.947515729953142300E-017, -0.02952755905441987700 ) ) ;
#275 = ORIENTED_EDGE ( 'NONE', *, *, #115, .T. ) ;
#276 = CARTESIAN_POINT ( 'NONE',  ( -0.05796233017454905500, 0.1003937007874016200, 0.0000000000000000000 ) ) ;
#277 = ORIENTED_EDGE ( 'NONE', *, *, #118, .F. ) ;
#278 = CARTESIAN_POINT ( 'NONE',  ( 0.05796233017454905500, 0.1003937007874016500, 0.02952755905511811300 ) ) ;
#279 = DATE_AND_TIME ( #364, #270 ) ;
#280 = AXIS2_PLACEMENT_3D ( 'NONE', #303, #48, #269 ) ;
#281 = CARTESIAN_POINT ( 'NONE',  ( 0.1590267276497130100, 1.947515729950989300E-017, -0.02952755904770608700 ) ) ;
#282 = DIRECTION ( 'NONE',  ( 0.0000000000000000000, 0.0000000000000000000, 1.000000000000000000 ) ) ;
#283 = CARTESIAN_POINT ( 'NONE',  ( 0.05796233017454905500, 0.1003937007874016300, -0.02952755905511812000 ) ) ;
#284 = FACE_OUTER_BOUND ( 'NONE', #149, .T. ) ;
#285 = CARTESIAN_POINT ( 'NONE',  ( -0.1159246603490980700, -1.120923622047244000E-017, -0.02952755905511811300 ) ) ;
#286 = VERTEX_POINT ( 'NONE', #198 ) ;
#287 =( NAMED_UNIT ( * ) SI_UNIT ( $, .STERADIAN. ) SOLID_ANGLE_UNIT ( ) );
#288 = ORIENTED_EDGE ( 'NONE', *, *, #40, .F. ) ;
#289 = EDGE_CURVE ( 'NONE', #111, #12, #28, .T. ) ;
#290 = PLANE ( 'NONE',  #154 ) ;
#291 = PRODUCT_DEFINITION_FORMATION_WITH_SPECIFIED_SOURCE ( 'ANY', '', #42, .NOT_KNOWN. ) ;
#292 = VECTOR ( 'NONE', #141, 39.37007874015748900 ) ;
#293 = COORDINATED_UNIVERSAL_TIME_OFFSET ( 6, 0, .BEHIND. ) ;
#294 = ADVANCED_BREP_SHAPE_REPRESENTATION ( 'REV-41-1325_Default', ( #11, #41 ), #237 ) ;
#295 = APPROVAL_STATUS ( 'not_yet_approved' ) ;
#296 = CONICAL_SURFACE ( 'NONE', #334, 0.1590267276497130100, 0.02617993875035415400 ) ;
#297 = SECURITY_CLASSIFICATION_LEVEL ( 'unclassified' ) ;
#298 = LINE ( 'NONE', #124, #268 ) ;
#299 = VECTOR ( 'NONE', #60, 39.37007874015748900 ) ;
#300 = LOCAL_TIME ( 16, 38, 59.00000000000000000, #240 ) ;
#301 = VECTOR ( 'NONE', #130, 39.37007874015748100 ) ;
#302 = ADVANCED_FACE ( 'NONE', ( #39 ), #156, .T. ) ;
#303 = CARTESIAN_POINT ( 'NONE',  ( -0.1159246603490981100, 0.0000000000000000000, 0.0000000000000000000 ) ) ;
#304 = ORIENTED_EDGE ( 'NONE', *, *, #226, .F. ) ;
#305 = DIRECTION ( 'NONE',  ( 0.4999999999999997200, -0.8660254037844388200, 0.0000000000000000000 ) ) ;
#306 = ORIENTED_EDGE ( 'NONE', *, *, #217, .T. ) ;
#307 = PLANE ( 'NONE',  #46 ) ;
#308 = CC_DESIGN_DATE_AND_TIME_ASSIGNMENT ( #94, #70, ( #354 ) ) ;
#309 = PLANE ( 'NONE',  #104 ) ;
#310 = ORIENTED_EDGE ( 'NONE', *, *, #144, .F. ) ;
#311 = DIRECTION ( 'NONE',  ( 1.000000000000000000, 0.0000000000000000000, -0.0000000000000000000 ) ) ;
#312 = AXIS2_PLACEMENT_3D ( 'NONE', #26, #372, #57 ) ;
#313 = DIRECTION ( 'NONE',  ( -0.4999999999999998300, -0.8660254037844386000, 0.0000000000000000000 ) ) ;
#314 = DIRECTION ( 'NONE',  ( 1.000000000000000000, 0.0000000000000000000, -0.0000000000000000000 ) ) ;
#315 = EDGE_LOOP ( 'NONE', ( #98, #126, #223, #363 ) ) ;
#316 = APPROVAL ( #173, 'UNSPECIFIED' ) ;
#317 = DIRECTION ( 'NONE',  ( 0.0000000000000000000, 0.0000000000000000000, 1.000000000000000000 ) ) ;
#318 = VECTOR ( 'NONE', #317, 39.37007874015748100 ) ;
#319 = DIRECTION ( 'NONE',  ( 0.4999999999999998300, 0.8660254037844386000, 0.0000000000000000000 ) ) ;
#320 = ORIENTED_EDGE ( 'NONE', *, *, #196, .F. ) ;
#321 = AXIS2_PLACEMENT_3D ( 'NONE', #108, #83, #376 ) ;
#322 = PERSON_AND_ORGANIZATION_ROLE ( 'design_supplier' ) ;
#323 = VECTOR ( 'NONE', #166, 39.37007874015748100 ) ;
#324 = APPLICATION_CONTEXT ( 'configuration controlled 3d designs of mechanical parts and assemblies' ) ;
#325 = ORIENTED_EDGE ( 'NONE', *, *, #196, .T. ) ;
#326 = CALENDAR_DATE ( 2016, 4, 9 ) ;
#327 = PERSON ( 'UNSPECIFIED', 'UNSPECIFIED', 'UNSPECIFIED', ('UNSPECIFIED'), ('UNSPECIFIED'), ('UNSPECIFIED') ) ;
#328 = ORIENTED_EDGE ( 'NONE', *, *, #115, .F. ) ;
#329 = VECTOR ( 'NONE', #54, 39.37007874015748100 ) ;
#330 = CC_DESIGN_PERSON_AND_ORGANIZATION_ASSIGNMENT ( #373, #262, ( #42 ) ) ;
#331 = ORIENTED_EDGE ( 'NONE', *, *, #248, .F. ) ;
#332 = DESIGN_CONTEXT ( 'detailed design', #209, 'design' ) ;
#333 = CARTESIAN_POINT ( 'NONE',  ( -1.071330708661417400E-017, 0.0000000000000000000, 0.02952755905511811300 ) ) ;
#334 = AXIS2_PLACEMENT_3D ( 'NONE', #170, #5, #59 ) ;
#335 = ADVANCED_FACE ( 'NONE', ( #148 ), #296, .T. ) ;
#336 = ORIENTED_EDGE ( 'NONE', *, *, #366, .T. ) ;
#337 = PLANE ( 'NONE',  #207 ) ;
#338 = CC_DESIGN_APPROVAL ( #316, ( #354 ) ) ;
#339 = DIRECTION ( 'NONE',  ( 0.0000000000000000000, 0.0000000000000000000, 1.000000000000000000 ) ) ;
#340 = EDGE_LOOP ( 'NONE', ( #172, #142, #21, #167 ) ) ;
#341 = CARTESIAN_POINT ( 'NONE',  ( 0.1159246603490981100, -1.059248818897637800E-017, 0.02952755905511811300 ) ) ;
#342 = EDGE_CURVE ( 'NONE', #67, #202, #272, .T. ) ;
#343 = CARTESIAN_POINT ( 'NONE',  ( 0.05796233017454905500, 0.1003937007874016500, -0.02952755905511811300 ) ) ;
#344 = DIRECTION ( 'NONE',  ( -0.4999999999999998300, -0.8660254037844386000, 0.0000000000000000000 ) ) ;
#345 = CARTESIAN_POINT ( 'NONE',  ( 0.0000000000000000000, 0.0000000000000000000, 0.0000000000000000000 ) ) ;
#346 = ORIENTED_EDGE ( 'NONE', *, *, #289, .F. ) ;
#347 = LINE ( 'NONE', #378, #93 ) ;
#348 = CARTESIAN_POINT ( 'NONE',  ( -0.1159246603490980700, -1.120923622047244000E-017, 0.02952755905511811300 ) ) ;
#349 = LOCAL_TIME ( 16, 38, 59.00000000000000000, #293 ) ;
#350 = CARTESIAN_POINT ( 'NONE',  ( 0.05796233017454905500, 0.1003937007874016500, 0.0000000000000000000 ) ) ;
#351 = ORIENTED_EDGE ( 'NONE', *, *, #289, .T. ) ;
#352 = CARTESIAN_POINT ( 'NONE',  ( -0.1590267276498888200, 0.0000000000000000000, -0.02952755905441987700 ) ) ;
#353 = VERTEX_POINT ( 'NONE', #352 ) ;
#354 = PRODUCT_DEFINITION ( 'UNKNOWN', '', #291, #332 ) ;
#355 = APPROVAL_ROLE ( '' ) ;
#356 = PERSON_AND_ORGANIZATION ( #327, #88 ) ;
#357 = PERSON_AND_ORGANIZATION_ROLE ( 'creator' ) ;
#358 = AXIS2_PLACEMENT_3D ( 'NONE', #232, #253, #87 ) ;
#359 = VECTOR ( 'NONE', #162, 39.37007874015748100 ) ;
#360 = DIRECTION ( 'NONE',  ( 0.0000000000000000000, 0.0000000000000000000, 1.000000000000000000 ) ) ;
#361 = CC_DESIGN_PERSON_AND_ORGANIZATION_ASSIGNMENT ( #62, #322, ( #291 ) ) ;
#362 = ORIENTED_EDGE ( 'NONE', *, *, #86, .F. ) ;
#363 = ORIENTED_EDGE ( 'NONE', *, *, #127, .F. ) ;
#364 = CALENDAR_DATE ( 2016, 4, 9 ) ;
#365 = ADVANCED_FACE ( 'NONE', ( #164 ), #89, .F. ) ;
#366 = EDGE_CURVE ( 'NONE', #161, #353, #263, .T. ) ;
#367 = DIRECTION ( 'NONE',  ( 1.000000000000000000, 0.0000000000000000000, -0.0000000000000000000 ) ) ;
#368 = VECTOR ( 'NONE', #314, 39.37007874015748100 ) ;
#369 = VERTEX_POINT ( 'NONE', #283 ) ;
#370 = CARTESIAN_POINT ( 'NONE',  ( -1.071330708661417400E-017, 0.1003937007874016200, 0.02952755905511811300 ) ) ;
#371 = ORIENTED_EDGE ( 'NONE', *, *, #150, .T. ) ;
#372 = DIRECTION ( 'NONE',  ( 0.0000000000000000000, -1.000000000000000000, 0.0000000000000000000 ) ) ;
#373 = PERSON_AND_ORGANIZATION ( #327, #88 ) ;
#374 = APPROVAL ( #295, 'UNSPECIFIED' ) ;
#375 = DIRECTION ( 'NONE',  ( -0.4999999999999998300, -0.8660254037844386000, 0.0000000000000000000 ) ) ;
#376 = DIRECTION ( 'NONE',  ( -1.000000000000000000, 0.0000000000000000000, 0.0000000000000000000 ) ) ;
#377 = VECTOR ( 'NONE', #193, 39.37007874015748100 ) ;
#378 = CARTESIAN_POINT ( 'NONE',  ( 0.1159246603490981100, -1.059248818897637800E-017, -0.02952755905511811300 ) ) ;
#379 = FACE_BOUND ( 'NONE', #221, .T. ) ;
#380 = DIRECTION ( 'NONE',  ( -1.000000000000000000, 0.0000000000000000000, 0.0000000000000000000 ) ) ;
ENDSEC;
END-ISO-10303-21;
