ISO-10303-21;
HEADER;
/* Generated by software containing ST-Developer
 * from STEP Tools, Inc. (www.steptools.com) 
 */

FILE_DESCRIPTION(
/* description */ (''),
/* implementation_level */ '2;1');

FILE_NAME(
/* name */ 'E:/Dropbox/REV Robotics/STEP Files/REV-41-1348.step',
/* time_stamp */ '2017-04-10T11:17:36-05:00',
/* author */ (''),
/* organization */ (''),
/* preprocessor_version */ 'ST-DEVELOPER v16.5',
/* originating_system */ 'Autodesk Translation Framework v5.2.0.2920',
/* authorisation */ '');

FILE_SCHEMA (('AUTOMOTIVE_DESIGN { 1 0 10303 214 3 1 1 }'));
ENDSEC;

DATA;
#10=MECHANICAL_DESIGN_GEOMETRIC_PRESENTATION_REPRESENTATION('',(#13),#525);
#11=SHAPE_REPRESENTATION_RELATIONSHIP('SRR','None',#531,#12);
#12=ADVANCED_BREP_SHAPE_REPRESENTATION('',(#14),#524);
#13=STYLED_ITEM('',(#541),#14);
#14=MANIFOLD_SOLID_BREP('Body1',#329);
#15=FACE_OUTER_BOUND('',#35,.T.);
#16=FACE_OUTER_BOUND('',#36,.T.);
#17=FACE_OUTER_BOUND('',#37,.T.);
#18=FACE_OUTER_BOUND('',#38,.T.);
#19=FACE_OUTER_BOUND('',#39,.T.);
#20=FACE_OUTER_BOUND('',#40,.T.);
#21=FACE_OUTER_BOUND('',#41,.T.);
#22=FACE_OUTER_BOUND('',#42,.T.);
#23=FACE_OUTER_BOUND('',#43,.T.);
#24=FACE_OUTER_BOUND('',#44,.T.);
#25=FACE_OUTER_BOUND('',#45,.T.);
#26=FACE_OUTER_BOUND('',#46,.T.);
#27=FACE_OUTER_BOUND('',#47,.T.);
#28=FACE_OUTER_BOUND('',#48,.T.);
#29=FACE_OUTER_BOUND('',#49,.T.);
#30=FACE_OUTER_BOUND('',#50,.T.);
#31=FACE_OUTER_BOUND('',#51,.T.);
#32=FACE_OUTER_BOUND('',#52,.T.);
#33=FACE_OUTER_BOUND('',#53,.T.);
#34=FACE_OUTER_BOUND('',#54,.T.);
#35=EDGE_LOOP('',(#205,#206,#207,#208));
#36=EDGE_LOOP('',(#209,#210,#211,#212));
#37=EDGE_LOOP('',(#213,#214,#215,#216));
#38=EDGE_LOOP('',(#217,#218,#219,#220));
#39=EDGE_LOOP('',(#221,#222,#223,#224));
#40=EDGE_LOOP('',(#225,#226,#227,#228));
#41=EDGE_LOOP('',(#229,#230,#231,#232));
#42=EDGE_LOOP('',(#233,#234,#235,#236));
#43=EDGE_LOOP('',(#237,#238,#239,#240));
#44=EDGE_LOOP('',(#241,#242,#243,#244,#245,#246));
#45=EDGE_LOOP('',(#247,#248,#249,#250));
#46=EDGE_LOOP('',(#251,#252,#253,#254));
#47=EDGE_LOOP('',(#255,#256,#257,#258));
#48=EDGE_LOOP('',(#259,#260,#261,#262));
#49=EDGE_LOOP('',(#263,#264,#265,#266));
#50=EDGE_LOOP('',(#267,#268,#269,#270));
#51=EDGE_LOOP('',(#271,#272,#273,#274));
#52=EDGE_LOOP('',(#275,#276,#277,#278,#279,#280));
#53=EDGE_LOOP('',(#281,#282,#283,#284));
#54=EDGE_LOOP('',(#285,#286,#287,#288));
#55=LINE('',#439,#97);
#56=LINE('',#441,#98);
#57=LINE('',#443,#99);
#58=LINE('',#444,#100);
#59=LINE('',#447,#101);
#60=LINE('',#449,#102);
#61=LINE('',#450,#103);
#62=LINE('',#453,#104);
#63=LINE('',#455,#105);
#64=LINE('',#456,#106);
#65=LINE('',#459,#107);
#66=LINE('',#461,#108);
#67=LINE('',#462,#109);
#68=LINE('',#465,#110);
#69=LINE('',#467,#111);
#70=LINE('',#468,#112);
#71=LINE('',#470,#113);
#72=LINE('',#471,#114);
#73=LINE('',#474,#115);
#74=LINE('',#476,#116);
#75=LINE('',#477,#117);
#76=LINE('',#480,#118);
#77=LINE('',#481,#119);
#78=LINE('',#484,#120);
#79=LINE('',#485,#121);
#80=LINE('',#490,#122);
#81=LINE('',#491,#123);
#82=LINE('',#492,#124);
#83=LINE('',#495,#125);
#84=LINE('',#496,#126);
#85=LINE('',#499,#127);
#86=LINE('',#501,#128);
#87=LINE('',#502,#129);
#88=LINE('',#505,#130);
#89=LINE('',#507,#131);
#90=LINE('',#508,#132);
#91=LINE('',#510,#133);
#92=LINE('',#512,#134);
#93=LINE('',#513,#135);
#94=LINE('',#515,#136);
#95=LINE('',#517,#137);
#96=LINE('',#520,#138);
#97=VECTOR('',#355,2.42487113059643);
#98=VECTOR('',#356,0.611010092660778);
#99=VECTOR('',#357,2.88675134594813);
#100=VECTOR('',#358,0.611010092660778);
#101=VECTOR('',#361,2.42487113059643);
#102=VECTOR('',#362,0.611010092660778);
#103=VECTOR('',#363,2.88675134594813);
#104=VECTOR('',#366,2.42487113059643);
#105=VECTOR('',#367,0.611010092660778);
#106=VECTOR('',#368,2.88675134594813);
#107=VECTOR('',#371,2.42487113059643);
#108=VECTOR('',#372,0.611010092660778);
#109=VECTOR('',#373,2.88675134594813);
#110=VECTOR('',#376,2.88675134594813);
#111=VECTOR('',#377,2.42487113059643);
#112=VECTOR('',#378,0.611010092660778);
#113=VECTOR('',#381,2.88675134594813);
#114=VECTOR('',#382,2.42487113059643);
#115=VECTOR('',#385,89.2);
#116=VECTOR('',#386,2.88675134594813);
#117=VECTOR('',#387,89.2);
#118=VECTOR('',#390,89.2);
#119=VECTOR('',#391,2.88675134594813);
#120=VECTOR('',#394,89.2);
#121=VECTOR('',#395,2.88675134594813);
#122=VECTOR('',#400,2.42487113059643);
#123=VECTOR('',#401,0.611010092660778);
#124=VECTOR('',#402,0.611010092660778);
#125=VECTOR('',#405,2.42487113059643);
#126=VECTOR('',#406,0.611010092660778);
#127=VECTOR('',#409,2.42487113059643);
#128=VECTOR('',#410,0.611010092660778);
#129=VECTOR('',#411,2.88675134594813);
#130=VECTOR('',#414,2.42487113059643);
#131=VECTOR('',#415,0.611010092660778);
#132=VECTOR('',#416,2.88675134594813);
#133=VECTOR('',#419,2.88675134594813);
#134=VECTOR('',#420,2.42487113059643);
#135=VECTOR('',#421,0.611010092660778);
#136=VECTOR('',#424,2.42487113059643);
#137=VECTOR('',#427,89.2);
#138=VECTOR('',#432,89.2);
#139=VERTEX_POINT('',#437);
#140=VERTEX_POINT('',#438);
#141=VERTEX_POINT('',#440);
#142=VERTEX_POINT('',#442);
#143=VERTEX_POINT('',#446);
#144=VERTEX_POINT('',#448);
#145=VERTEX_POINT('',#452);
#146=VERTEX_POINT('',#454);
#147=VERTEX_POINT('',#458);
#148=VERTEX_POINT('',#460);
#149=VERTEX_POINT('',#464);
#150=VERTEX_POINT('',#466);
#151=VERTEX_POINT('',#473);
#152=VERTEX_POINT('',#475);
#153=VERTEX_POINT('',#479);
#154=VERTEX_POINT('',#483);
#155=VERTEX_POINT('',#488);
#156=VERTEX_POINT('',#489);
#157=VERTEX_POINT('',#494);
#158=VERTEX_POINT('',#498);
#159=VERTEX_POINT('',#500);
#160=VERTEX_POINT('',#504);
#161=VERTEX_POINT('',#506);
#162=VERTEX_POINT('',#511);
#163=EDGE_CURVE('',#139,#140,#55,.T.);
#164=EDGE_CURVE('',#140,#141,#56,.T.);
#165=EDGE_CURVE('',#141,#142,#57,.T.);
#166=EDGE_CURVE('',#139,#142,#58,.T.);
#167=EDGE_CURVE('',#140,#143,#59,.T.);
#168=EDGE_CURVE('',#143,#144,#60,.T.);
#169=EDGE_CURVE('',#144,#141,#61,.T.);
#170=EDGE_CURVE('',#143,#145,#62,.T.);
#171=EDGE_CURVE('',#145,#146,#63,.T.);
#172=EDGE_CURVE('',#146,#144,#64,.T.);
#173=EDGE_CURVE('',#145,#147,#65,.T.);
#174=EDGE_CURVE('',#147,#148,#66,.T.);
#175=EDGE_CURVE('',#148,#146,#67,.T.);
#176=EDGE_CURVE('',#149,#148,#68,.T.);
#177=EDGE_CURVE('',#147,#150,#69,.T.);
#178=EDGE_CURVE('',#150,#149,#70,.T.);
#179=EDGE_CURVE('',#142,#149,#71,.T.);
#180=EDGE_CURVE('',#150,#139,#72,.T.);
#181=EDGE_CURVE('',#151,#149,#73,.T.);
#182=EDGE_CURVE('',#152,#151,#74,.T.);
#183=EDGE_CURVE('',#152,#148,#75,.T.);
#184=EDGE_CURVE('',#153,#142,#76,.T.);
#185=EDGE_CURVE('',#151,#153,#77,.T.);
#186=EDGE_CURVE('',#154,#141,#78,.T.);
#187=EDGE_CURVE('',#153,#154,#79,.T.);
#188=EDGE_CURVE('',#155,#156,#80,.T.);
#189=EDGE_CURVE('',#156,#151,#81,.T.);
#190=EDGE_CURVE('',#155,#153,#82,.T.);
#191=EDGE_CURVE('',#156,#157,#83,.T.);
#192=EDGE_CURVE('',#157,#152,#84,.T.);
#193=EDGE_CURVE('',#157,#158,#85,.T.);
#194=EDGE_CURVE('',#158,#159,#86,.T.);
#195=EDGE_CURVE('',#159,#152,#87,.T.);
#196=EDGE_CURVE('',#158,#160,#88,.T.);
#197=EDGE_CURVE('',#160,#161,#89,.T.);
#198=EDGE_CURVE('',#161,#159,#90,.T.);
#199=EDGE_CURVE('',#154,#161,#91,.T.);
#200=EDGE_CURVE('',#160,#162,#92,.T.);
#201=EDGE_CURVE('',#162,#154,#93,.T.);
#202=EDGE_CURVE('',#162,#155,#94,.T.);
#203=EDGE_CURVE('',#161,#144,#95,.T.);
#204=EDGE_CURVE('',#146,#159,#96,.T.);
#205=ORIENTED_EDGE('',*,*,#163,.T.);
#206=ORIENTED_EDGE('',*,*,#164,.T.);
#207=ORIENTED_EDGE('',*,*,#165,.T.);
#208=ORIENTED_EDGE('',*,*,#166,.F.);
#209=ORIENTED_EDGE('',*,*,#167,.T.);
#210=ORIENTED_EDGE('',*,*,#168,.T.);
#211=ORIENTED_EDGE('',*,*,#169,.T.);
#212=ORIENTED_EDGE('',*,*,#164,.F.);
#213=ORIENTED_EDGE('',*,*,#170,.T.);
#214=ORIENTED_EDGE('',*,*,#171,.T.);
#215=ORIENTED_EDGE('',*,*,#172,.T.);
#216=ORIENTED_EDGE('',*,*,#168,.F.);
#217=ORIENTED_EDGE('',*,*,#173,.T.);
#218=ORIENTED_EDGE('',*,*,#174,.T.);
#219=ORIENTED_EDGE('',*,*,#175,.T.);
#220=ORIENTED_EDGE('',*,*,#171,.F.);
#221=ORIENTED_EDGE('',*,*,#176,.T.);
#222=ORIENTED_EDGE('',*,*,#174,.F.);
#223=ORIENTED_EDGE('',*,*,#177,.T.);
#224=ORIENTED_EDGE('',*,*,#178,.T.);
#225=ORIENTED_EDGE('',*,*,#179,.T.);
#226=ORIENTED_EDGE('',*,*,#178,.F.);
#227=ORIENTED_EDGE('',*,*,#180,.T.);
#228=ORIENTED_EDGE('',*,*,#166,.T.);
#229=ORIENTED_EDGE('',*,*,#176,.F.);
#230=ORIENTED_EDGE('',*,*,#181,.F.);
#231=ORIENTED_EDGE('',*,*,#182,.F.);
#232=ORIENTED_EDGE('',*,*,#183,.T.);
#233=ORIENTED_EDGE('',*,*,#179,.F.);
#234=ORIENTED_EDGE('',*,*,#184,.F.);
#235=ORIENTED_EDGE('',*,*,#185,.F.);
#236=ORIENTED_EDGE('',*,*,#181,.T.);
#237=ORIENTED_EDGE('',*,*,#165,.F.);
#238=ORIENTED_EDGE('',*,*,#186,.F.);
#239=ORIENTED_EDGE('',*,*,#187,.F.);
#240=ORIENTED_EDGE('',*,*,#184,.T.);
#241=ORIENTED_EDGE('',*,*,#163,.F.);
#242=ORIENTED_EDGE('',*,*,#180,.F.);
#243=ORIENTED_EDGE('',*,*,#177,.F.);
#244=ORIENTED_EDGE('',*,*,#173,.F.);
#245=ORIENTED_EDGE('',*,*,#170,.F.);
#246=ORIENTED_EDGE('',*,*,#167,.F.);
#247=ORIENTED_EDGE('',*,*,#188,.T.);
#248=ORIENTED_EDGE('',*,*,#189,.T.);
#249=ORIENTED_EDGE('',*,*,#185,.T.);
#250=ORIENTED_EDGE('',*,*,#190,.F.);
#251=ORIENTED_EDGE('',*,*,#191,.T.);
#252=ORIENTED_EDGE('',*,*,#192,.T.);
#253=ORIENTED_EDGE('',*,*,#182,.T.);
#254=ORIENTED_EDGE('',*,*,#189,.F.);
#255=ORIENTED_EDGE('',*,*,#193,.T.);
#256=ORIENTED_EDGE('',*,*,#194,.T.);
#257=ORIENTED_EDGE('',*,*,#195,.T.);
#258=ORIENTED_EDGE('',*,*,#192,.F.);
#259=ORIENTED_EDGE('',*,*,#196,.T.);
#260=ORIENTED_EDGE('',*,*,#197,.T.);
#261=ORIENTED_EDGE('',*,*,#198,.T.);
#262=ORIENTED_EDGE('',*,*,#194,.F.);
#263=ORIENTED_EDGE('',*,*,#199,.T.);
#264=ORIENTED_EDGE('',*,*,#197,.F.);
#265=ORIENTED_EDGE('',*,*,#200,.T.);
#266=ORIENTED_EDGE('',*,*,#201,.T.);
#267=ORIENTED_EDGE('',*,*,#187,.T.);
#268=ORIENTED_EDGE('',*,*,#201,.F.);
#269=ORIENTED_EDGE('',*,*,#202,.T.);
#270=ORIENTED_EDGE('',*,*,#190,.T.);
#271=ORIENTED_EDGE('',*,*,#169,.F.);
#272=ORIENTED_EDGE('',*,*,#203,.F.);
#273=ORIENTED_EDGE('',*,*,#199,.F.);
#274=ORIENTED_EDGE('',*,*,#186,.T.);
#275=ORIENTED_EDGE('',*,*,#188,.F.);
#276=ORIENTED_EDGE('',*,*,#202,.F.);
#277=ORIENTED_EDGE('',*,*,#200,.F.);
#278=ORIENTED_EDGE('',*,*,#196,.F.);
#279=ORIENTED_EDGE('',*,*,#193,.F.);
#280=ORIENTED_EDGE('',*,*,#191,.F.);
#281=ORIENTED_EDGE('',*,*,#175,.F.);
#282=ORIENTED_EDGE('',*,*,#183,.F.);
#283=ORIENTED_EDGE('',*,*,#195,.F.);
#284=ORIENTED_EDGE('',*,*,#204,.F.);
#285=ORIENTED_EDGE('',*,*,#172,.F.);
#286=ORIENTED_EDGE('',*,*,#204,.T.);
#287=ORIENTED_EDGE('',*,*,#198,.F.);
#288=ORIENTED_EDGE('',*,*,#203,.T.);
#289=PLANE('',#331);
#290=PLANE('',#332);
#291=PLANE('',#333);
#292=PLANE('',#334);
#293=PLANE('',#335);
#294=PLANE('',#336);
#295=PLANE('',#337);
#296=PLANE('',#338);
#297=PLANE('',#339);
#298=PLANE('',#340);
#299=PLANE('',#341);
#300=PLANE('',#342);
#301=PLANE('',#343);
#302=PLANE('',#344);
#303=PLANE('',#345);
#304=PLANE('',#346);
#305=PLANE('',#347);
#306=PLANE('',#348);
#307=PLANE('',#349);
#308=PLANE('',#350);
#309=ADVANCED_FACE('',(#15),#289,.T.);
#310=ADVANCED_FACE('',(#16),#290,.T.);
#311=ADVANCED_FACE('',(#17),#291,.T.);
#312=ADVANCED_FACE('',(#18),#292,.T.);
#313=ADVANCED_FACE('',(#19),#293,.T.);
#314=ADVANCED_FACE('',(#20),#294,.T.);
#315=ADVANCED_FACE('',(#21),#295,.T.);
#316=ADVANCED_FACE('',(#22),#296,.T.);
#317=ADVANCED_FACE('',(#23),#297,.T.);
#318=ADVANCED_FACE('',(#24),#298,.F.);
#319=ADVANCED_FACE('',(#25),#299,.T.);
#320=ADVANCED_FACE('',(#26),#300,.T.);
#321=ADVANCED_FACE('',(#27),#301,.T.);
#322=ADVANCED_FACE('',(#28),#302,.T.);
#323=ADVANCED_FACE('',(#29),#303,.T.);
#324=ADVANCED_FACE('',(#30),#304,.T.);
#325=ADVANCED_FACE('',(#31),#305,.T.);
#326=ADVANCED_FACE('',(#32),#306,.T.);
#327=ADVANCED_FACE('',(#33),#307,.T.);
#328=ADVANCED_FACE('',(#34),#308,.T.);
#329=CLOSED_SHELL('',(#309,#310,#311,#312,#313,#314,#315,#316,#317,#318,
#319,#320,#321,#322,#323,#324,#325,#326,#327,#328));
#330=AXIS2_PLACEMENT_3D('placement',#435,#351,#352);
#331=AXIS2_PLACEMENT_3D('',#436,#353,#354);
#332=AXIS2_PLACEMENT_3D('',#445,#359,#360);
#333=AXIS2_PLACEMENT_3D('',#451,#364,#365);
#334=AXIS2_PLACEMENT_3D('',#457,#369,#370);
#335=AXIS2_PLACEMENT_3D('',#463,#374,#375);
#336=AXIS2_PLACEMENT_3D('',#469,#379,#380);
#337=AXIS2_PLACEMENT_3D('',#472,#383,#384);
#338=AXIS2_PLACEMENT_3D('',#478,#388,#389);
#339=AXIS2_PLACEMENT_3D('',#482,#392,#393);
#340=AXIS2_PLACEMENT_3D('',#486,#396,#397);
#341=AXIS2_PLACEMENT_3D('',#487,#398,#399);
#342=AXIS2_PLACEMENT_3D('',#493,#403,#404);
#343=AXIS2_PLACEMENT_3D('',#497,#407,#408);
#344=AXIS2_PLACEMENT_3D('',#503,#412,#413);
#345=AXIS2_PLACEMENT_3D('',#509,#417,#418);
#346=AXIS2_PLACEMENT_3D('',#514,#422,#423);
#347=AXIS2_PLACEMENT_3D('',#516,#425,#426);
#348=AXIS2_PLACEMENT_3D('',#518,#428,#429);
#349=AXIS2_PLACEMENT_3D('',#519,#430,#431);
#350=AXIS2_PLACEMENT_3D('',#521,#433,#434);
#351=DIRECTION('axis',(0.,0.,1.));
#352=DIRECTION('refdir',(1.,0.,0.));
#353=DIRECTION('center_axis',(-0.353553390593274,-0.612372435695795,-0.707106781186547));
#354=DIRECTION('ref_axis',(-0.894427190999916,2.77555756156289E-16,0.447213595499958));
#355=DIRECTION('',(0.866025403784439,-0.5,0.));
#356=DIRECTION('',(-4.235002E-16,-0.755928946018456,0.654653670707976));
#357=DIRECTION('',(-0.866025403784439,0.5,0.));
#358=DIRECTION('',(-0.654653670707978,-0.377964473009228,0.654653670707976));
#359=DIRECTION('center_axis',(0.353553390593274,-0.612372435695795,-0.707106781186547));
#360=DIRECTION('ref_axis',(-0.894427190999916,-2.77555756156289E-16,-0.447213595499958));
#361=DIRECTION('',(0.866025403784439,0.5,0.));
#362=DIRECTION('',(0.654653670707978,-0.377964473009227,0.654653670707976));
#363=DIRECTION('',(-0.866025403784439,-0.5,0.));
#364=DIRECTION('center_axis',(0.707106781186548,-2.71948E-16,-0.707106781186547));
#365=DIRECTION('ref_axis',(-0.707106781186547,0.,-0.707106781186548));
#366=DIRECTION('',(0.,1.,0.));
#367=DIRECTION('',(0.654653670707978,0.377964473009228,0.654653670707976));
#368=DIRECTION('',(0.,-1.,0.));
#369=DIRECTION('center_axis',(0.353553390593274,0.612372435695795,-0.707106781186547));
#370=DIRECTION('ref_axis',(-0.894427190999916,2.77555756156289E-16,-0.447213595499958));
#371=DIRECTION('',(-0.866025403784438,0.5,0.));
#372=DIRECTION('',(6.583817E-16,0.755928946018456,0.654653670707976));
#373=DIRECTION('',(0.866025403784438,-0.5,0.));
#374=DIRECTION('center_axis',(-0.353553390593274,0.612372435695795,-0.707106781186547));
#375=DIRECTION('ref_axis',(-0.894427190999916,1.66533453693773E-16,0.447213595499959));
#376=DIRECTION('',(0.866025403784439,0.5,0.));
#377=DIRECTION('',(-0.866025403784439,-0.5,0.));
#378=DIRECTION('',(-0.654653670707978,0.377964473009228,0.654653670707976));
#379=DIRECTION('center_axis',(-0.707106781186548,0.,-0.707106781186547));
#380=DIRECTION('ref_axis',(-0.707106781186547,0.,0.707106781186548));
#381=DIRECTION('',(0.,1.,0.));
#382=DIRECTION('',(0.,-1.,0.));
#383=DIRECTION('center_axis',(-0.5,0.866025403784439,0.));
#384=DIRECTION('ref_axis',(-0.866025403784439,-0.5,0.));
#385=DIRECTION('',(0.,0.,-1.));
#386=DIRECTION('',(-0.866025403784439,-0.5,0.));
#387=DIRECTION('',(0.,0.,-1.));
#388=DIRECTION('center_axis',(-1.,0.,0.));
#389=DIRECTION('ref_axis',(0.,-1.,0.));
#390=DIRECTION('',(0.,0.,-1.));
#391=DIRECTION('',(0.,-1.,0.));
#392=DIRECTION('center_axis',(-0.5,-0.866025403784439,0.));
#393=DIRECTION('ref_axis',(0.866025403784439,-0.5,0.));
#394=DIRECTION('',(0.,0.,-1.));
#395=DIRECTION('',(0.866025403784439,-0.5,0.));
#396=DIRECTION('center_axis',(0.,0.,1.));
#397=DIRECTION('ref_axis',(1.,0.,0.));
#398=DIRECTION('center_axis',(-0.707106781186548,0.,0.707106781186547));
#399=DIRECTION('ref_axis',(0.707106781186547,0.,0.707106781186548));
#400=DIRECTION('',(0.,1.,0.));
#401=DIRECTION('',(-0.654653670707978,0.377964473009228,-0.654653670707976));
#402=DIRECTION('',(-0.654653670707978,-0.377964473009228,-0.654653670707976));
#403=DIRECTION('center_axis',(-0.353553390593274,0.612372435695795,0.707106781186547));
#404=DIRECTION('ref_axis',(0.894427190999916,-1.66533453693773E-16,0.447213595499959));
#405=DIRECTION('',(0.866025403784438,0.5,0.));
#406=DIRECTION('',(4.312531E-16,0.755928946018455,-0.654653670707976));
#407=DIRECTION('center_axis',(0.353553390593274,0.612372435695795,0.707106781186547));
#408=DIRECTION('ref_axis',(0.894427190999916,-2.77555756156289E-16,-0.447213595499958));
#409=DIRECTION('',(0.866025403784438,-0.5,0.));
#410=DIRECTION('',(0.654653670707978,0.377964473009228,-0.654653670707976));
#411=DIRECTION('',(-0.866025403784438,0.5,0.));
#412=DIRECTION('center_axis',(0.707106781186548,-2.71948E-16,0.707106781186547));
#413=DIRECTION('ref_axis',(0.707106781186547,0.,-0.707106781186548));
#414=DIRECTION('',(0.,-1.,0.));
#415=DIRECTION('',(0.654653670707979,-0.377964473009227,-0.654653670707976));
#416=DIRECTION('',(0.,1.,0.));
#417=DIRECTION('center_axis',(0.353553390593274,-0.612372435695795,0.707106781186547));
#418=DIRECTION('ref_axis',(0.894427190999916,2.77555756156289E-16,-0.447213595499958));
#419=DIRECTION('',(0.866025403784439,0.5,0.));
#420=DIRECTION('',(-0.866025403784439,-0.5,0.));
#421=DIRECTION('',(-1.963716E-16,-0.755928946018455,-0.654653670707976));
#422=DIRECTION('center_axis',(-0.353553390593274,-0.612372435695795,0.707106781186547));
#423=DIRECTION('ref_axis',(0.894427190999916,-2.77555756156289E-16,0.447213595499958));
#424=DIRECTION('',(-0.866025403784439,0.5,0.));
#425=DIRECTION('center_axis',(0.5,-0.866025403784439,0.));
#426=DIRECTION('ref_axis',(0.866025403784439,0.5,0.));
#427=DIRECTION('',(0.,0.,-1.));
#428=DIRECTION('center_axis',(0.,0.,1.));
#429=DIRECTION('ref_axis',(1.,0.,0.));
#430=DIRECTION('center_axis',(0.5,0.866025403784439,0.));
#431=DIRECTION('ref_axis',(-0.866025403784439,0.5,0.));
#432=DIRECTION('',(0.,0.,1.));
#433=DIRECTION('center_axis',(1.,0.,0.));
#434=DIRECTION('ref_axis',(0.,1.,0.));
#435=CARTESIAN_POINT('',(0.,0.,0.));
#436=CARTESIAN_POINT('Origin',(-1.775,-1.63101451046069,-44.8));
#437=CARTESIAN_POINT('',(-2.1,-1.21243556529821,-45.));
#438=CARTESIAN_POINT('',(-9.020562E-16,-2.42487113059643,-45.));
#439=CARTESIAN_POINT('',(-2.1,-1.21243556529821,-45.));
#440=CARTESIAN_POINT('',(-1.230208E-15,-2.88675134594813,-44.6));
#441=CARTESIAN_POINT('',(-9.714451E-16,-2.42487113059643,-45.));
#442=CARTESIAN_POINT('',(-2.5,-1.44337567297406,-44.6));
#443=CARTESIAN_POINT('',(-4.440892E-16,-2.88675134594813,-44.6));
#444=CARTESIAN_POINT('',(-2.1,-1.21243556529821,-45.));
#445=CARTESIAN_POINT('Origin',(0.524999999999999,-2.35270234694773,-44.8));
#446=CARTESIAN_POINT('',(2.1,-1.21243556529822,-45.));
#447=CARTESIAN_POINT('',(-9.436896E-16,-2.42487113059643,-45.));
#448=CARTESIAN_POINT('',(2.5,-1.44337567297407,-44.6));
#449=CARTESIAN_POINT('',(2.1,-1.21243556529822,-45.));
#450=CARTESIAN_POINT('',(2.5,-1.44337567297407,-44.6));
#451=CARTESIAN_POINT('Origin',(2.3,-0.721687836487033,-44.8));
#452=CARTESIAN_POINT('',(2.1,1.21243556529821,-45.));
#453=CARTESIAN_POINT('',(2.1,-1.21243556529822,-45.));
#454=CARTESIAN_POINT('',(2.5,1.44337567297406,-44.6));
#455=CARTESIAN_POINT('',(2.1,1.21243556529821,-45.));
#456=CARTESIAN_POINT('',(2.5,1.44337567297406,-44.6));
#457=CARTESIAN_POINT('Origin',(1.775,1.63101451046069,-44.8));
#458=CARTESIAN_POINT('',(-9.714451E-16,2.42487113059643,-45.));
#459=CARTESIAN_POINT('',(2.1,1.21243556529821,-45.));
#460=CARTESIAN_POINT('',(-5.691673E-16,2.88675134594813,-44.6));
#461=CARTESIAN_POINT('',(-9.714451E-16,2.42487113059643,-45.));
#462=CARTESIAN_POINT('',(-8.881784E-16,2.88675134594813,-44.6));
#463=CARTESIAN_POINT('Origin',(-0.525000000000001,2.35270234694773,-44.8));
#464=CARTESIAN_POINT('',(-2.5,1.44337567297406,-44.6));
#465=CARTESIAN_POINT('',(-2.5,1.44337567297406,-44.6));
#466=CARTESIAN_POINT('',(-2.1,1.21243556529821,-45.));
#467=CARTESIAN_POINT('',(-9.436896E-16,2.42487113059643,-45.));
#468=CARTESIAN_POINT('',(-2.1,1.21243556529821,-45.));
#469=CARTESIAN_POINT('Origin',(-2.3,0.721687836487032,-44.8));
#470=CARTESIAN_POINT('',(-2.5,-1.44337567297406,-44.6));
#471=CARTESIAN_POINT('',(-2.1,1.21243556529821,-45.));
#472=CARTESIAN_POINT('Origin',(-8.326673E-16,2.88675134594813,0.));
#473=CARTESIAN_POINT('',(-2.5,1.44337567297406,44.6));
#474=CARTESIAN_POINT('',(-2.5,1.44337567297406,44.6));
#475=CARTESIAN_POINT('',(-5.691673E-16,2.88675134594813,44.6));
#476=CARTESIAN_POINT('',(-4.440892E-16,2.88675134594813,44.6));
#477=CARTESIAN_POINT('',(-5.691673E-16,2.88675134594813,44.6));
#478=CARTESIAN_POINT('Origin',(-2.5,1.44337567297407,0.));
#479=CARTESIAN_POINT('',(-2.5,-1.44337567297406,44.6));
#480=CARTESIAN_POINT('',(-2.5,-1.44337567297406,44.6));
#481=CARTESIAN_POINT('',(-2.5,1.44337567297406,44.6));
#482=CARTESIAN_POINT('Origin',(-2.5,-1.44337567297406,0.));
#483=CARTESIAN_POINT('',(-1.230208E-15,-2.88675134594813,44.6));
#484=CARTESIAN_POINT('',(-1.230208E-15,-2.88675134594813,44.6));
#485=CARTESIAN_POINT('',(-2.5,-1.44337567297406,44.6));
#486=CARTESIAN_POINT('Origin',(-4.206481E-16,0.,-45.));
#487=CARTESIAN_POINT('Origin',(-2.3,0.721687836487032,44.8));
#488=CARTESIAN_POINT('',(-2.1,-1.21243556529821,45.));
#489=CARTESIAN_POINT('',(-2.1,1.21243556529821,45.));
#490=CARTESIAN_POINT('',(-2.1,-1.21243556529821,45.));
#491=CARTESIAN_POINT('',(-2.1,1.21243556529821,45.));
#492=CARTESIAN_POINT('',(-2.1,-1.21243556529821,45.));
#493=CARTESIAN_POINT('Origin',(-0.525000000000001,2.35270234694773,44.8));
#494=CARTESIAN_POINT('',(-1.387779E-15,2.42487113059643,45.));
#495=CARTESIAN_POINT('',(-2.1,1.21243556529821,45.));
#496=CARTESIAN_POINT('',(-8.326673E-16,2.42487113059643,45.));
#497=CARTESIAN_POINT('Origin',(1.775,1.63101451046069,44.8));
#498=CARTESIAN_POINT('',(2.1,1.21243556529821,45.));
#499=CARTESIAN_POINT('',(-1.554312E-15,2.42487113059643,45.));
#500=CARTESIAN_POINT('',(2.5,1.44337567297406,44.6));
#501=CARTESIAN_POINT('',(2.1,1.21243556529821,45.));
#502=CARTESIAN_POINT('',(2.5,1.44337567297406,44.6));
#503=CARTESIAN_POINT('Origin',(2.3,-0.721687836487033,44.8));
#504=CARTESIAN_POINT('',(2.1,-1.21243556529822,45.));
#505=CARTESIAN_POINT('',(2.1,1.21243556529821,45.));
#506=CARTESIAN_POINT('',(2.5,-1.44337567297407,44.6));
#507=CARTESIAN_POINT('',(2.1,-1.21243556529822,45.));
#508=CARTESIAN_POINT('',(2.5,-1.44337567297407,44.6));
#509=CARTESIAN_POINT('Origin',(0.524999999999999,-2.35270234694773,44.8));
#510=CARTESIAN_POINT('',(-1.332268E-15,-2.88675134594813,44.6));
#511=CARTESIAN_POINT('',(-5.551115E-16,-2.42487113059643,45.));
#512=CARTESIAN_POINT('',(2.1,-1.21243556529822,45.));
#513=CARTESIAN_POINT('',(-1.110223E-15,-2.42487113059643,45.));
#514=CARTESIAN_POINT('Origin',(-1.775,-1.63101451046069,44.8));
#515=CARTESIAN_POINT('',(2.220446E-16,-2.42487113059643,45.));
#516=CARTESIAN_POINT('Origin',(-1.110223E-15,-2.88675134594813,0.));
#517=CARTESIAN_POINT('',(2.5,-1.44337567297407,44.6));
#518=CARTESIAN_POINT('Origin',(-4.206481E-16,0.,45.));
#519=CARTESIAN_POINT('Origin',(2.5,1.44337567297406,0.));
#520=CARTESIAN_POINT('',(2.5,1.44337567297406,-44.6));
#521=CARTESIAN_POINT('Origin',(2.5,-1.44337567297407,0.));
#522=UNCERTAINTY_MEASURE_WITH_UNIT(LENGTH_MEASURE(0.01),#526,
'DISTANCE_ACCURACY_VALUE',
'Maximum model space distance between geometric entities at asserted c
onnectivities');
#523=UNCERTAINTY_MEASURE_WITH_UNIT(LENGTH_MEASURE(0.01),#526,
'DISTANCE_ACCURACY_VALUE',
'Maximum model space distance between geometric entities at asserted c
onnectivities');
#524=(
GEOMETRIC_REPRESENTATION_CONTEXT(3)
GLOBAL_UNCERTAINTY_ASSIGNED_CONTEXT((#522))
GLOBAL_UNIT_ASSIGNED_CONTEXT((#526,#528,#527))
REPRESENTATION_CONTEXT('','3D')
);
#525=(
GEOMETRIC_REPRESENTATION_CONTEXT(3)
GLOBAL_UNCERTAINTY_ASSIGNED_CONTEXT((#523))
GLOBAL_UNIT_ASSIGNED_CONTEXT((#526,#528,#527))
REPRESENTATION_CONTEXT('','3D')
);
#526=(
LENGTH_UNIT()
NAMED_UNIT(*)
SI_UNIT(.MILLI.,.METRE.)
);
#527=(
NAMED_UNIT(*)
SI_UNIT($,.STERADIAN.)
SOLID_ANGLE_UNIT()
);
#528=(
NAMED_UNIT(*)
PLANE_ANGLE_UNIT()
SI_UNIT($,.RADIAN.)
);
#529=SHAPE_DEFINITION_REPRESENTATION(#530,#531);
#530=PRODUCT_DEFINITION_SHAPE('',$,#533);
#531=SHAPE_REPRESENTATION('',(#330),#524);
#532=PRODUCT_DEFINITION_CONTEXT('part definition',#537,'design');
#533=PRODUCT_DEFINITION('REV-41-1348 v1','REV-41-1348 v1',#534,#532);
#534=PRODUCT_DEFINITION_FORMATION('',$,#539);
#535=PRODUCT_RELATED_PRODUCT_CATEGORY('REV-41-1348 v1','REV-41-1348 v1',
(#539));
#536=APPLICATION_PROTOCOL_DEFINITION('international standard',
'automotive_design',2009,#537);
#537=APPLICATION_CONTEXT(
'Core Data for Automotive Mechanical Design Process');
#538=PRODUCT_CONTEXT('part definition',#537,'mechanical');
#539=PRODUCT('REV-41-1348 v1','REV-41-1348 v1',$,(#538));
#540=PRESENTATION_STYLE_ASSIGNMENT((#542));
#541=PRESENTATION_STYLE_ASSIGNMENT((#543));
#542=SURFACE_STYLE_USAGE(.BOTH.,#544);
#543=SURFACE_STYLE_USAGE(.BOTH.,#545);
#544=SURFACE_SIDE_STYLE('',(#546));
#545=SURFACE_SIDE_STYLE('',(#547));
#546=SURFACE_STYLE_FILL_AREA(#548);
#547=SURFACE_STYLE_FILL_AREA(#549);
#548=FILL_AREA_STYLE('Steel - Satin',(#550));
#549=FILL_AREA_STYLE('Opaque(224,223,219)',(#551));
#550=FILL_AREA_STYLE_COLOUR('Steel - Satin',#552);
#551=FILL_AREA_STYLE_COLOUR('Opaque(224,223,219)',#553);
#552=COLOUR_RGB('Steel - Satin',0.627450980392157,0.627450980392157,0.627450980392157);
#553=COLOUR_RGB('Opaque(224,223,219)',0.87843137254902,0.874509803921569,
0.858823529411765);
ENDSEC;
END-ISO-10303-21;
